  0
SECTION
  2
HEADER
  9
$ACADVER
  1
AC1018
  9
$ACADMAINTVER
 70
     0
  9
$DWGCODEPAGE
  3
ANSI_1252
  9
$INSBASE
 10
0.0
 20
0.0
 30
0.0
  9
$EXTMIN
 10
-6.531477366156
 20
-2.314439994737
 30
0.0
  9
$EXTMAX
 10
20.621779629255
 20
9.029860005263
 30
0.0
  9
$LIMMIN
 10
0.0
 20
0.0
  9
$LIMMAX
 10
420.0
 20
297.0
  9
$ORTHOMODE
 70
     0
  9
$REGENMODE
 70
     1
  9
$FILLMODE
 70
     1
  9
$QTEXTMODE
 70
     0
  9
$MIRRTEXT
 70
     1
  9
$LTSCALE
 40
1.0
  9
$ATTMODE
 70
     1
  9
$TEXTSIZE
 40
2.5
  9
$TRACEWID
 40
1.0
  9
$TEXTSTYLE
  7
Standard
  9
$CLAYER
  8
0
  9
$CELTYPE
  6
ByLayer
  9
$CECOLOR
 62
   256
  9
$CELTSCALE
 40
1.0
  9
$DISPSILH
 70
     0
  9
$DIMSCALE
 40
1.0
  9
$DIMASZ
 40
2.5
  9
$DIMEXO
 40
0.625
  9
$DIMDLI
 40
3.75
  9
$DIMRND
 40
0.0
  9
$DIMDLE
 40
0.0
  9
$DIMEXE
 40
1.25
  9
$DIMTP
 40
0.0
  9
$DIMTM
 40
0.0
  9
$DIMTXT
 40
2.5
  9
$DIMCEN
 40
2.5
  9
$DIMTSZ
 40
0.0
  9
$DIMTOL
 70
     0
  9
$DIMLIM
 70
     0
  9
$DIMTIH
 70
     0
  9
$DIMTOH
 70
     0
  9
$DIMSE1
 70
     0
  9
$DIMSE2
 70
     0
  9
$DIMTAD
 70
     1
  9
$DIMZIN
 70
     8
  9
$DIMBLK
  1

  9
$DIMASO
 70
     1
  9
$DIMSHO
 70
     1
  9
$DIMPOST
  1

  9
$DIMAPOST
  1

  9
$DIMALT
 70
     0
  9
$DIMALTD
 70
     3
  9
$DIMALTF
 40
0.03937007874
  9
$DIMLFAC
 40
1.0
  9
$DIMTOFL
 70
     1
  9
$DIMTVP
 40
0.0
  9
$DIMTIX
 70
     0
  9
$DIMSOXD
 70
     0
  9
$DIMSAH
 70
     0
  9
$DIMBLK1
  1

  9
$DIMBLK2
  1

  9
$DIMSTYLE
  2
ISO-25
  9
$DIMCLRD
 70
     0
  9
$DIMCLRE
 70
     0
  9
$DIMCLRT
 70
     0
  9
$DIMTFAC
 40
1.0
  9
$DIMGAP
 40
0.625
  9
$DIMJUST
 70
     0
  9
$DIMSD1
 70
     0
  9
$DIMSD2
 70
     0
  9
$DIMTOLJ
 70
     0
  9
$DIMTZIN
 70
     8
  9
$DIMALTZ
 70
     0
  9
$DIMALTTZ
 70
     0
  9
$DIMUPT
 70
     0
  9
$DIMDEC
 70
     2
  9
$DIMTDEC
 70
     2
  9
$DIMALTU
 70
     2
  9
$DIMALTTD
 70
     3
  9
$DIMTXSTY
  7
Standard
  9
$DIMAUNIT
 70
     0
  9
$DIMADEC
 70
     0
  9
$DIMALTRND
 40
0.0
  9
$DIMAZIN
 70
     0
  9
$DIMDSEP
 70
    44
  9
$DIMATFIT
 70
     3
  9
$DIMFRAC
 70
     0
  9
$DIMLDRBLK
  1

  9
$DIMLUNIT
 70
     2
  9
$DIMLWD
 70
    -2
  9
$DIMLWE
 70
    -2
  9
$DIMTMOVE
 70
     0
  9
$LUNITS
 70
     2
  9
$LUPREC
 70
     4
  9
$SKETCHINC
 40
1.0
  9
$FILLETRAD
 40
10.0
  9
$AUNITS
 70
     0
  9
$AUPREC
 70
     0
  9
$MENU
  1
.
  9
$ELEVATION
 40
0.0
  9
$PELEVATION
 40
0.0
  9
$THICKNESS
 40
0.0
  9
$LIMCHECK
 70
     0
  9
$CHAMFERA
 40
0.0
  9
$CHAMFERB
 40
0.0
  9
$CHAMFERC
 40
0.0
  9
$CHAMFERD
 40
0.0
  9
$SKPOLY
 70
     0
  9
$TDCREATE
 40
2457081.405794004
  9
$TDUCREATE
 40
2457081.697460671
  9
$TDUPDATE
 40
2457081.405823252
  9
$TDUUPDATE
 40
2457081.697489919
  9
$TDINDWG
 40
0.0000000116
  9
$TDUSRTIMER
 40
0.0000000116
  9
$USRTIMER
 70
     1
  9
$ANGBASE
 50
0.0
  9
$ANGDIR
 70
     0
  9
$PDMODE
 70
     2
  9
$PDSIZE
 40
1.0
  9
$PLINEWID
 40
0.0
  9
$SPLFRAME
 70
     0
  9
$SPLINETYPE
 70
     6
  9
$SPLINESEGS
 70
     8
  9
$HANDSEED
  5
32A
  9
$SURFTAB1
 70
     6
  9
$SURFTAB2
 70
     6
  9
$SURFTYPE
 70
     6
  9
$SURFU
 70
     6
  9
$SURFV
 70
     6
  9
$UCSBASE
  2

  9
$UCSNAME
  2

  9
$UCSORG
 10
0.0
 20
0.0
 30
0.0
  9
$UCSXDIR
 10
1.0
 20
0.0
 30
0.0
  9
$UCSYDIR
 10
0.0
 20
1.0
 30
0.0
  9
$UCSORTHOREF
  2

  9
$UCSORTHOVIEW
 70
     0
  9
$UCSORGTOP
 10
0.0
 20
0.0
 30
0.0
  9
$UCSORGBOTTOM
 10
0.0
 20
0.0
 30
0.0
  9
$UCSORGLEFT
 10
0.0
 20
0.0
 30
0.0
  9
$UCSORGRIGHT
 10
0.0
 20
0.0
 30
0.0
  9
$UCSORGFRONT
 10
0.0
 20
0.0
 30
0.0
  9
$UCSORGBACK
 10
0.0
 20
0.0
 30
0.0
  9
$PUCSBASE
  2

  9
$PUCSNAME
  2

  9
$PUCSORG
 10
0.0
 20
0.0
 30
0.0
  9
$PUCSXDIR
 10
1.0
 20
0.0
 30
0.0
  9
$PUCSYDIR
 10
0.0
 20
1.0
 30
0.0
  9
$PUCSORTHOREF
  2

  9
$PUCSORTHOVIEW
 70
     0
  9
$PUCSORGTOP
 10
0.0
 20
0.0
 30
0.0
  9
$PUCSORGBOTTOM
 10
0.0
 20
0.0
 30
0.0
  9
$PUCSORGLEFT
 10
0.0
 20
0.0
 30
0.0
  9
$PUCSORGRIGHT
 10
0.0
 20
0.0
 30
0.0
  9
$PUCSORGFRONT
 10
0.0
 20
0.0
 30
0.0
  9
$PUCSORGBACK
 10
0.0
 20
0.0
 30
0.0
  9
$USERI1
 70
     0
  9
$USERI2
 70
     0
  9
$USERI3
 70
     0
  9
$USERI4
 70
     0
  9
$USERI5
 70
     0
  9
$USERR1
 40
0.0
  9
$USERR2
 40
0.0
  9
$USERR3
 40
0.0
  9
$USERR4
 40
0.0
  9
$USERR5
 40
0.0
  9
$WORLDVIEW
 70
     1
  9
$SHADEDGE
 70
     3
  9
$SHADEDIF
 70
    70
  9
$TILEMODE
 70
     1
  9
$MAXACTVP
 70
    64
  9
$PINSBASE
 10
0.0
 20
0.0
 30
0.0
  9
$PLIMCHECK
 70
     0
  9
$PEXTMIN
 10
1.000000000000E+20
 20
1.000000000000E+20
 30
1.000000000000E+20
  9
$PEXTMAX
 10
-1.000000000000E+20
 20
-1.000000000000E+20
 30
-1.000000000000E+20
  9
$PLIMMIN
 10
0.0
 20
0.0
  9
$PLIMMAX
 10
420.0
 20
297.0
  9
$UNITMODE
 70
     0
  9
$VISRETAIN
 70
     1
  9
$PLINEGEN
 70
     0
  9
$PSLTSCALE
 70
     1
  9
$TREEDEPTH
 70
  3020
  9
$CMLSTYLE
  2
Standard
  9
$CMLJUST
 70
     0
  9
$CMLSCALE
 40
20.0
  9
$PROXYGRAPHICS
 70
     1
  9
$MEASUREMENT
 70
     1
  9
$CELWEIGHT
370
    -1
  9
$ENDCAPS
280
     0
  9
$JOINSTYLE
280
     0
  9
$LWDISPLAY
290
     0
  9
$INSUNITS
 70
     4
  9
$HYPERLINKBASE
  1

  9
$STYLESHEET
  1

  9
$XEDIT
290
     1
  9
$CEPSNTYPE
380
     0
  9
$PSTYLEMODE
290
     1
  9
$FINGERPRINTGUID
  2
{30E00C49-2789-4B36-BFD4-EA3AB41AB675}
  9
$VERSIONGUID
  2
{FAEB1C32-E019-11D5-929B-00C0DF256EC4}
  9
$EXTNAMES
290
     1
  9
$PSVPSCALE
 40
0.0
  9
$OLESTARTUP
290
     0
  9
$SORTENTS
280
   127
  9
$INDEXCTL
280
     0
  9
$HIDETEXT
280
     1
  9
$XCLIPFRAME
290
     0
  9
$HALOGAP
280
     0
  9
$OBSCOLOR
 70
   257
  9
$OBSLTYPE
280
     0
  9
$INTERSECTIONDISPLAY
280
     0
  9
$INTERSECTIONCOLOR
 70
   257
  9
$DIMASSOC
280
     2
  9
$PROJECTNAME
  1

  0
ENDSEC
  0
SECTION
  2
CLASSES
  0
CLASS
  1
ACDBDICTIONARYWDFLT
  2
AcDbDictionaryWithDefault
  3
ObjectDBX Classes
 90
        0
 91
        4
280
     0
281
     0
  0
CLASS
  1
VISUALSTYLE
  2
AcDbVisualStyle
  3
ObjectDBX Classes
 90
     4095
 91
        4
280
     0
281
     0
  0
CLASS
  1
MATERIAL
  2
AcDbMaterial
  3
ObjectDBX Classes
 90
     1153
 91
        4
280
     0
281
     0
  0
CLASS
  1
SCALE
  2
AcDbScale
  3
ObjectDBX Classes
 90
     1153
 91
        4
280
     0
281
     0
  0
CLASS
  1
SUN
  2
AcDbSun
  3
SCENEOE
 90
     1153
 91
        4
280
     0
281
     0
  0
CLASS
  1
WIPEOUTVARIABLES
  2
AcDbWipeoutVariables
  3
WipeOut|AutoCAD Express Tool|expresstools@autodesk.com
 90
        0
 91
        4
280
     0
281
     0
  0
CLASS
  1
WIPEOUT
  2
AcDbWipeout
  3
WipeOut|AutoCAD Express Tool|expresstools@autodesk.com
 90
      127
 91
        4
280
     0
281
     1
  0
CLASS
  1
DICTIONARYVAR
  2
AcDbDictionaryVar
  3
ObjectDBX Classes
 90
        0
 91
        4
280
     0
281
     0
  0
ENDSEC
  0
SECTION
  2
TABLES
  0
TABLE
  2
VPORT
  5
8
102
{ACAD_XDICTIONARY
360
2EB
102
}
330
0
100
AcDbSymbolTable
 70
     1
  0
VPORT
  5
29
330
8
100
AcDbSymbolTableRecord
100
AcDbViewportTableRecord
  2
*Active
 70
     0
 10
0.0
 20
0.0
 11
1.0
 21
1.0
 12
7.045151131549
 22
3.357710005263
 13
0.0
 23
0.0
 14
10.0
 24
10.0
 15
10.0
 25
10.0
 16
0.0
 26
0.0
 36
1.0
 17
0.0
 27
0.0
 37
0.0
 40
11.3443
 41
2.393559496435
 42
50.0
 43
0.0
 44
0.0
 50
0.0
 51
0.0
 71
     0
 72
   100
 73
     1
 74
     3
 75
     0
 76
     0
 77
     0
 78
     0
281
     0
 65
     1
110
0.0
120
0.0
130
0.0
111
1.0
121
0.0
131
0.0
112
0.0
122
1.0
132
0.0
 79
     0
146
0.0
  0
ENDTAB
  0
TABLE
  2
LTYPE
  5
5
330
0
100
AcDbSymbolTable
 70
     2
  0
LTYPE
  5
14
330
5
100
AcDbSymbolTableRecord
100
AcDbLinetypeTableRecord
  2
ByBlock
 70
     0
  3

 72
    65
 73
     0
 40
0.0
  0
LTYPE
  5
15
330
5
100
AcDbSymbolTableRecord
100
AcDbLinetypeTableRecord
  2
ByLayer
 70
     0
  3

 72
    65
 73
     0
 40
0.0
  0
LTYPE
  5
16
330
5
100
AcDbSymbolTableRecord
100
AcDbLinetypeTableRecord
  2
Continuous
 70
     0
  3
Solid line
 72
    65
 73
     0
 40
0.0
  0
LTYPE
  5
6B
330
5
100
AcDbSymbolTableRecord
100
AcDbLinetypeTableRecord
  2
AUSGEZOGEN
 70
     0
  3

 72
    65
 73
     0
 40
0.0
  0
ENDTAB
  0
TABLE
  2
LAYER
  5
2
330
0
100
AcDbSymbolTable
 70
   257
  0
LAYER
  5
10
330
2
100
AcDbSymbolTableRecord
100
AcDbLayerTableRecord
  2
0
 70
     0
 62
     7
  6
Continuous
370
    -3
390
F
  0
LAYER
  5
70
330
2
100
AcDbSymbolTableRecord
100
AcDbLayerTableRecord
  2
PROFILE
 70
     0
 62
     7
  6
Continuous
370
    -3
390
F
  0
LAYER
  5
71
330
2
100
AcDbSymbolTableRecord
100
AcDbLayerTableRecord
  2
TEXT
 70
     0
 62
     7
  6
Continuous
370
    -3
390
F
  0
LAYER
  5
72
330
2
100
AcDbSymbolTableRecord
100
AcDbLayerTableRecord
  2
Layer2
 70
     0
 62
     7
  6
Continuous
370
    -3
390
F
  0
LAYER
  5
73
330
2
100
AcDbSymbolTableRecord
100
AcDbLayerTableRecord
  2
Walls
 70
     0
 62
     7
  6
Continuous
370
    -3
390
F
  0
LAYER
  5
74
330
2
100
AcDbSymbolTableRecord
100
AcDbLayerTableRecord
  2
Doors
 70
     0
 62
     7
  6
Continuous
370
    -3
390
F
  0
LAYER
  5
75
330
2
100
AcDbSymbolTableRecord
100
AcDbLayerTableRecord
  2
Windows
 70
     0
 62
     7
  6
Continuous
370
    -3
390
F
  0
LAYER
  5
76
330
2
100
AcDbSymbolTableRecord
100
AcDbLayerTableRecord
  2
Water suply
 70
     0
 62
     7
  6
Continuous
370
    -3
390
F
  0
LAYER
  5
77
330
2
100
AcDbSymbolTableRecord
100
AcDbLayerTableRecord
  2
Electrical Wiring
 70
     0
 62
     7
  6
Continuous
370
    -3
390
F
  0
LAYER
  5
78
330
2
100
AcDbSymbolTableRecord
100
AcDbLayerTableRecord
  2
Heating
 70
     0
 62
     7
  6
Continuous
370
    -3
390
F
  0
LAYER
  5
79
330
2
100
AcDbSymbolTableRecord
100
AcDbLayerTableRecord
  2
Alarm System
 70
     0
 62
     7
  6
Continuous
370
    -3
390
F
  0
LAYER
  5
7A
330
2
100
AcDbSymbolTableRecord
100
AcDbLayerTableRecord
  2
TV Ariel
 70
     0
 62
     7
  6
Continuous
370
    -3
390
F
  0
LAYER
  5
7B
330
2
100
AcDbSymbolTableRecord
100
AcDbLayerTableRecord
  2
Interior
 70
     0
 62
     7
  6
Continuous
370
    -3
390
F
  0
LAYER
  5
7C
330
2
100
AcDbSymbolTableRecord
100
AcDbLayerTableRecord
  2
Kitchen fitting
 70
     0
 62
     7
  6
Continuous
370
    -3
390
F
  0
LAYER
  5
7D
330
2
100
AcDbSymbolTableRecord
100
AcDbLayerTableRecord
  2
Layer13
 70
     0
 62
     7
  6
Continuous
370
    -3
390
F
  0
LAYER
  5
7E
330
2
100
AcDbSymbolTableRecord
100
AcDbLayerTableRecord
  2
Layer14
 70
     0
 62
     7
  6
Continuous
370
    -3
390
F
  0
LAYER
  5
7F
330
2
100
AcDbSymbolTableRecord
100
AcDbLayerTableRecord
  2
Layer15
 70
     0
 62
     7
  6
Continuous
370
    -3
390
F
  0
LAYER
  5
80
330
2
100
AcDbSymbolTableRecord
100
AcDbLayerTableRecord
  2
Layer16
 70
     0
 62
     7
  6
Continuous
370
    -3
390
F
  0
LAYER
  5
81
330
2
100
AcDbSymbolTableRecord
100
AcDbLayerTableRecord
  2
Layer17
 70
     0
 62
     7
  6
Continuous
370
    -3
390
F
  0
LAYER
  5
82
330
2
100
AcDbSymbolTableRecord
100
AcDbLayerTableRecord
  2
Layer18
 70
     0
 62
     7
  6
Continuous
370
    -3
390
F
  0
LAYER
  5
83
330
2
100
AcDbSymbolTableRecord
100
AcDbLayerTableRecord
  2
Layer19
 70
     0
 62
     7
  6
Continuous
370
    -3
390
F
  0
LAYER
  5
84
330
2
100
AcDbSymbolTableRecord
100
AcDbLayerTableRecord
  2
Layer20
 70
     0
 62
     7
  6
Continuous
370
    -3
390
F
  0
LAYER
  5
85
330
2
100
AcDbSymbolTableRecord
100
AcDbLayerTableRecord
  2
Layer21
 70
     0
 62
     7
  6
Continuous
370
    -3
390
F
  0
LAYER
  5
86
330
2
100
AcDbSymbolTableRecord
100
AcDbLayerTableRecord
  2
Layer22
 70
     0
 62
     7
  6
Continuous
370
    -3
390
F
  0
LAYER
  5
87
330
2
100
AcDbSymbolTableRecord
100
AcDbLayerTableRecord
  2
Layer23
 70
     0
 62
     7
  6
Continuous
370
    -3
390
F
  0
LAYER
  5
88
330
2
100
AcDbSymbolTableRecord
100
AcDbLayerTableRecord
  2
Layer24
 70
     0
 62
     7
  6
Continuous
370
    -3
390
F
  0
LAYER
  5
89
330
2
100
AcDbSymbolTableRecord
100
AcDbLayerTableRecord
  2
Layer25
 70
     0
 62
     7
  6
Continuous
370
    -3
390
F
  0
LAYER
  5
8A
330
2
100
AcDbSymbolTableRecord
100
AcDbLayerTableRecord
  2
Layer26
 70
     0
 62
     7
  6
Continuous
370
    -3
390
F
  0
LAYER
  5
8B
330
2
100
AcDbSymbolTableRecord
100
AcDbLayerTableRecord
  2
Layer27
 70
     0
 62
     7
  6
Continuous
370
    -3
390
F
  0
LAYER
  5
8C
330
2
100
AcDbSymbolTableRecord
100
AcDbLayerTableRecord
  2
Layer28
 70
     0
 62
     7
  6
Continuous
370
    -3
390
F
  0
LAYER
  5
8D
330
2
100
AcDbSymbolTableRecord
100
AcDbLayerTableRecord
  2
Layer29
 70
     0
 62
     7
  6
Continuous
370
    -3
390
F
  0
LAYER
  5
8E
330
2
100
AcDbSymbolTableRecord
100
AcDbLayerTableRecord
  2
Layer30
 70
     0
 62
     7
  6
Continuous
370
    -3
390
F
  0
LAYER
  5
8F
330
2
100
AcDbSymbolTableRecord
100
AcDbLayerTableRecord
  2
Layer31
 70
     0
 62
     7
  6
Continuous
370
    -3
390
F
  0
LAYER
  5
90
330
2
100
AcDbSymbolTableRecord
100
AcDbLayerTableRecord
  2
Layer32
 70
     0
 62
     7
  6
Continuous
370
    -3
390
F
  0
LAYER
  5
91
330
2
100
AcDbSymbolTableRecord
100
AcDbLayerTableRecord
  2
Layer33
 70
     0
 62
     7
  6
Continuous
370
    -3
390
F
  0
LAYER
  5
92
330
2
100
AcDbSymbolTableRecord
100
AcDbLayerTableRecord
  2
Layer34
 70
     0
 62
     7
  6
Continuous
370
    -3
390
F
  0
LAYER
  5
93
330
2
100
AcDbSymbolTableRecord
100
AcDbLayerTableRecord
  2
Layer35
 70
     0
 62
     7
  6
Continuous
370
    -3
390
F
  0
LAYER
  5
94
330
2
100
AcDbSymbolTableRecord
100
AcDbLayerTableRecord
  2
Layer36
 70
     0
 62
     7
  6
Continuous
370
    -3
390
F
  0
LAYER
  5
95
330
2
100
AcDbSymbolTableRecord
100
AcDbLayerTableRecord
  2
Layer37
 70
     0
 62
     7
  6
Continuous
370
    -3
390
F
  0
LAYER
  5
96
330
2
100
AcDbSymbolTableRecord
100
AcDbLayerTableRecord
  2
Layer38
 70
     0
 62
     7
  6
Continuous
370
    -3
390
F
  0
LAYER
  5
97
330
2
100
AcDbSymbolTableRecord
100
AcDbLayerTableRecord
  2
Layer39
 70
     0
 62
     7
  6
Continuous
370
    -3
390
F
  0
LAYER
  5
98
330
2
100
AcDbSymbolTableRecord
100
AcDbLayerTableRecord
  2
Layer40
 70
     0
 62
     7
  6
Continuous
370
    -3
390
F
  0
LAYER
  5
99
330
2
100
AcDbSymbolTableRecord
100
AcDbLayerTableRecord
  2
Layer41
 70
     0
 62
     7
  6
Continuous
370
    -3
390
F
  0
LAYER
  5
9A
330
2
100
AcDbSymbolTableRecord
100
AcDbLayerTableRecord
  2
Layer42
 70
     0
 62
     7
  6
Continuous
370
    -3
390
F
  0
LAYER
  5
9B
330
2
100
AcDbSymbolTableRecord
100
AcDbLayerTableRecord
  2
Layer43
 70
     0
 62
     7
  6
Continuous
370
    -3
390
F
  0
LAYER
  5
9C
330
2
100
AcDbSymbolTableRecord
100
AcDbLayerTableRecord
  2
Layer44
 70
     0
 62
     7
  6
Continuous
370
    -3
390
F
  0
LAYER
  5
9D
330
2
100
AcDbSymbolTableRecord
100
AcDbLayerTableRecord
  2
Layer45
 70
     0
 62
     7
  6
Continuous
370
    -3
390
F
  0
LAYER
  5
9E
330
2
100
AcDbSymbolTableRecord
100
AcDbLayerTableRecord
  2
Layer46
 70
     0
 62
     7
  6
Continuous
370
    -3
390
F
  0
LAYER
  5
9F
330
2
100
AcDbSymbolTableRecord
100
AcDbLayerTableRecord
  2
Layer47
 70
     0
 62
     7
  6
Continuous
370
    -3
390
F
  0
LAYER
  5
A0
330
2
100
AcDbSymbolTableRecord
100
AcDbLayerTableRecord
  2
Layer48
 70
     0
 62
     7
  6
Continuous
370
    -3
390
F
  0
LAYER
  5
A1
330
2
100
AcDbSymbolTableRecord
100
AcDbLayerTableRecord
  2
Layer49
 70
     0
 62
     7
  6
Continuous
370
    -3
390
F
  0
LAYER
  5
A2
330
2
100
AcDbSymbolTableRecord
100
AcDbLayerTableRecord
  2
Layer50
 70
     0
 62
     7
  6
Continuous
370
    -3
390
F
  0
LAYER
  5
A3
330
2
100
AcDbSymbolTableRecord
100
AcDbLayerTableRecord
  2
Layer51
 70
     0
 62
     7
  6
Continuous
370
    -3
390
F
  0
LAYER
  5
A4
330
2
100
AcDbSymbolTableRecord
100
AcDbLayerTableRecord
  2
Layer52
 70
     0
 62
     7
  6
Continuous
370
    -3
390
F
  0
LAYER
  5
A5
330
2
100
AcDbSymbolTableRecord
100
AcDbLayerTableRecord
  2
Layer53
 70
     0
 62
     7
  6
Continuous
370
    -3
390
F
  0
LAYER
  5
A6
330
2
100
AcDbSymbolTableRecord
100
AcDbLayerTableRecord
  2
Layer54
 70
     0
 62
     7
  6
Continuous
370
    -3
390
F
  0
LAYER
  5
A7
330
2
100
AcDbSymbolTableRecord
100
AcDbLayerTableRecord
  2
Layer55
 70
     0
 62
     7
  6
Continuous
370
    -3
390
F
  0
LAYER
  5
A8
330
2
100
AcDbSymbolTableRecord
100
AcDbLayerTableRecord
  2
Layer56
 70
     0
 62
     7
  6
Continuous
370
    -3
390
F
  0
LAYER
  5
A9
330
2
100
AcDbSymbolTableRecord
100
AcDbLayerTableRecord
  2
Layer57
 70
     0
 62
     7
  6
Continuous
370
    -3
390
F
  0
LAYER
  5
AA
330
2
100
AcDbSymbolTableRecord
100
AcDbLayerTableRecord
  2
Layer58
 70
     0
 62
     7
  6
Continuous
370
    -3
390
F
  0
LAYER
  5
AB
330
2
100
AcDbSymbolTableRecord
100
AcDbLayerTableRecord
  2
Layer59
 70
     0
 62
     7
  6
Continuous
370
    -3
390
F
  0
LAYER
  5
AC
330
2
100
AcDbSymbolTableRecord
100
AcDbLayerTableRecord
  2
Layer60
 70
     0
 62
     7
  6
Continuous
370
    -3
390
F
  0
LAYER
  5
AD
330
2
100
AcDbSymbolTableRecord
100
AcDbLayerTableRecord
  2
Layer61
 70
     0
 62
     7
  6
Continuous
370
    -3
390
F
  0
LAYER
  5
AE
330
2
100
AcDbSymbolTableRecord
100
AcDbLayerTableRecord
  2
Layer62
 70
     0
 62
     7
  6
Continuous
370
    -3
390
F
  0
LAYER
  5
AF
330
2
100
AcDbSymbolTableRecord
100
AcDbLayerTableRecord
  2
Layer63
 70
     0
 62
     7
  6
Continuous
370
    -3
390
F
  0
LAYER
  5
B0
330
2
100
AcDbSymbolTableRecord
100
AcDbLayerTableRecord
  2
Layer64
 70
     0
 62
     7
  6
Continuous
370
    -3
390
F
  0
LAYER
  5
B1
330
2
100
AcDbSymbolTableRecord
100
AcDbLayerTableRecord
  2
Layer65
 70
     0
 62
     7
  6
Continuous
370
    -3
390
F
  0
LAYER
  5
B2
330
2
100
AcDbSymbolTableRecord
100
AcDbLayerTableRecord
  2
Layer66
 70
     0
 62
     7
  6
Continuous
370
    -3
390
F
  0
LAYER
  5
B3
330
2
100
AcDbSymbolTableRecord
100
AcDbLayerTableRecord
  2
Layer67
 70
     0
 62
     7
  6
Continuous
370
    -3
390
F
  0
LAYER
  5
B4
330
2
100
AcDbSymbolTableRecord
100
AcDbLayerTableRecord
  2
Layer68
 70
     0
 62
     7
  6
Continuous
370
    -3
390
F
  0
LAYER
  5
B5
330
2
100
AcDbSymbolTableRecord
100
AcDbLayerTableRecord
  2
Layer69
 70
     0
 62
     7
  6
Continuous
370
    -3
390
F
  0
LAYER
  5
B6
330
2
100
AcDbSymbolTableRecord
100
AcDbLayerTableRecord
  2
Layer70
 70
     0
 62
     7
  6
Continuous
370
    -3
390
F
  0
LAYER
  5
B7
330
2
100
AcDbSymbolTableRecord
100
AcDbLayerTableRecord
  2
Layer71
 70
     0
 62
     7
  6
Continuous
370
    -3
390
F
  0
LAYER
  5
B8
330
2
100
AcDbSymbolTableRecord
100
AcDbLayerTableRecord
  2
Layer72
 70
     0
 62
     7
  6
Continuous
370
    -3
390
F
  0
LAYER
  5
B9
330
2
100
AcDbSymbolTableRecord
100
AcDbLayerTableRecord
  2
Layer73
 70
     0
 62
     7
  6
Continuous
370
    -3
390
F
  0
LAYER
  5
BA
330
2
100
AcDbSymbolTableRecord
100
AcDbLayerTableRecord
  2
Layer74
 70
     0
 62
     7
  6
Continuous
370
    -3
390
F
  0
LAYER
  5
BB
330
2
100
AcDbSymbolTableRecord
100
AcDbLayerTableRecord
  2
Layer75
 70
     0
 62
     7
  6
Continuous
370
    -3
390
F
  0
LAYER
  5
BC
330
2
100
AcDbSymbolTableRecord
100
AcDbLayerTableRecord
  2
Layer76
 70
     0
 62
     7
  6
Continuous
370
    -3
390
F
  0
LAYER
  5
BD
330
2
100
AcDbSymbolTableRecord
100
AcDbLayerTableRecord
  2
Layer77
 70
     0
 62
     7
  6
Continuous
370
    -3
390
F
  0
LAYER
  5
BE
330
2
100
AcDbSymbolTableRecord
100
AcDbLayerTableRecord
  2
Layer78
 70
     0
 62
     7
  6
Continuous
370
    -3
390
F
  0
LAYER
  5
BF
330
2
100
AcDbSymbolTableRecord
100
AcDbLayerTableRecord
  2
Layer79
 70
     0
 62
     7
  6
Continuous
370
    -3
390
F
  0
LAYER
  5
C0
330
2
100
AcDbSymbolTableRecord
100
AcDbLayerTableRecord
  2
Layer80
 70
     0
 62
     7
  6
Continuous
370
    -3
390
F
  0
LAYER
  5
C1
330
2
100
AcDbSymbolTableRecord
100
AcDbLayerTableRecord
  2
Layer81
 70
     0
 62
     7
  6
Continuous
370
    -3
390
F
  0
LAYER
  5
C2
330
2
100
AcDbSymbolTableRecord
100
AcDbLayerTableRecord
  2
Layer82
 70
     0
 62
     7
  6
Continuous
370
    -3
390
F
  0
LAYER
  5
C3
330
2
100
AcDbSymbolTableRecord
100
AcDbLayerTableRecord
  2
Layer83
 70
     0
 62
     7
  6
Continuous
370
    -3
390
F
  0
LAYER
  5
C4
330
2
100
AcDbSymbolTableRecord
100
AcDbLayerTableRecord
  2
Layer84
 70
     0
 62
     7
  6
Continuous
370
    -3
390
F
  0
LAYER
  5
C5
330
2
100
AcDbSymbolTableRecord
100
AcDbLayerTableRecord
  2
Layer85
 70
     0
 62
     7
  6
Continuous
370
    -3
390
F
  0
LAYER
  5
C6
330
2
100
AcDbSymbolTableRecord
100
AcDbLayerTableRecord
  2
Layer86
 70
     0
 62
     7
  6
Continuous
370
    -3
390
F
  0
LAYER
  5
C7
330
2
100
AcDbSymbolTableRecord
100
AcDbLayerTableRecord
  2
Layer87
 70
     0
 62
     7
  6
Continuous
370
    -3
390
F
  0
LAYER
  5
C8
330
2
100
AcDbSymbolTableRecord
100
AcDbLayerTableRecord
  2
Layer88
 70
     0
 62
     7
  6
Continuous
370
    -3
390
F
  0
LAYER
  5
C9
330
2
100
AcDbSymbolTableRecord
100
AcDbLayerTableRecord
  2
Layer89
 70
     0
 62
     7
  6
Continuous
370
    -3
390
F
  0
LAYER
  5
CA
330
2
100
AcDbSymbolTableRecord
100
AcDbLayerTableRecord
  2
Layer90
 70
     0
 62
     7
  6
Continuous
370
    -3
390
F
  0
LAYER
  5
CB
330
2
100
AcDbSymbolTableRecord
100
AcDbLayerTableRecord
  2
Layer91
 70
     0
 62
     7
  6
Continuous
370
    -3
390
F
  0
LAYER
  5
CC
330
2
100
AcDbSymbolTableRecord
100
AcDbLayerTableRecord
  2
Layer92
 70
     0
 62
     7
  6
Continuous
370
    -3
390
F
  0
LAYER
  5
CD
330
2
100
AcDbSymbolTableRecord
100
AcDbLayerTableRecord
  2
Layer93
 70
     0
 62
     7
  6
Continuous
370
    -3
390
F
  0
LAYER
  5
CE
330
2
100
AcDbSymbolTableRecord
100
AcDbLayerTableRecord
  2
Layer94
 70
     0
 62
     7
  6
Continuous
370
    -3
390
F
  0
LAYER
  5
CF
330
2
100
AcDbSymbolTableRecord
100
AcDbLayerTableRecord
  2
Layer95
 70
     0
 62
     7
  6
Continuous
370
    -3
390
F
  0
LAYER
  5
D0
330
2
100
AcDbSymbolTableRecord
100
AcDbLayerTableRecord
  2
Layer96
 70
     0
 62
     7
  6
Continuous
370
    -3
390
F
  0
LAYER
  5
D1
330
2
100
AcDbSymbolTableRecord
100
AcDbLayerTableRecord
  2
Layer97
 70
     0
 62
     7
  6
Continuous
370
    -3
390
F
  0
LAYER
  5
D2
330
2
100
AcDbSymbolTableRecord
100
AcDbLayerTableRecord
  2
Layer98
 70
     0
 62
     7
  6
Continuous
370
    -3
390
F
  0
LAYER
  5
D3
330
2
100
AcDbSymbolTableRecord
100
AcDbLayerTableRecord
  2
Layer99
 70
     0
 62
     7
  6
Continuous
370
    -3
390
F
  0
LAYER
  5
D4
330
2
100
AcDbSymbolTableRecord
100
AcDbLayerTableRecord
  2
Layer100
 70
     0
 62
     7
  6
Continuous
370
    -3
390
F
  0
LAYER
  5
D5
330
2
100
AcDbSymbolTableRecord
100
AcDbLayerTableRecord
  2
Layer101
 70
     0
 62
     7
  6
Continuous
370
    -3
390
F
  0
LAYER
  5
D6
330
2
100
AcDbSymbolTableRecord
100
AcDbLayerTableRecord
  2
Layer102
 70
     0
 62
     7
  6
Continuous
370
    -3
390
F
  0
LAYER
  5
D7
330
2
100
AcDbSymbolTableRecord
100
AcDbLayerTableRecord
  2
Layer103
 70
     0
 62
     7
  6
Continuous
370
    -3
390
F
  0
LAYER
  5
D8
330
2
100
AcDbSymbolTableRecord
100
AcDbLayerTableRecord
  2
Layer104
 70
     0
 62
     7
  6
Continuous
370
    -3
390
F
  0
LAYER
  5
D9
330
2
100
AcDbSymbolTableRecord
100
AcDbLayerTableRecord
  2
Layer105
 70
     0
 62
     7
  6
Continuous
370
    -3
390
F
  0
LAYER
  5
DA
330
2
100
AcDbSymbolTableRecord
100
AcDbLayerTableRecord
  2
Layer106
 70
     0
 62
     7
  6
Continuous
370
    -3
390
F
  0
LAYER
  5
DB
330
2
100
AcDbSymbolTableRecord
100
AcDbLayerTableRecord
  2
Layer107
 70
     0
 62
     7
  6
Continuous
370
    -3
390
F
  0
LAYER
  5
DC
330
2
100
AcDbSymbolTableRecord
100
AcDbLayerTableRecord
  2
Layer108
 70
     0
 62
     7
  6
Continuous
370
    -3
390
F
  0
LAYER
  5
DD
330
2
100
AcDbSymbolTableRecord
100
AcDbLayerTableRecord
  2
Layer109
 70
     0
 62
     7
  6
Continuous
370
    -3
390
F
  0
LAYER
  5
DE
330
2
100
AcDbSymbolTableRecord
100
AcDbLayerTableRecord
  2
Layer110
 70
     0
 62
     7
  6
Continuous
370
    -3
390
F
  0
LAYER
  5
DF
330
2
100
AcDbSymbolTableRecord
100
AcDbLayerTableRecord
  2
Layer111
 70
     0
 62
     7
  6
Continuous
370
    -3
390
F
  0
LAYER
  5
E0
330
2
100
AcDbSymbolTableRecord
100
AcDbLayerTableRecord
  2
Layer112
 70
     0
 62
     7
  6
Continuous
370
    -3
390
F
  0
LAYER
  5
E1
330
2
100
AcDbSymbolTableRecord
100
AcDbLayerTableRecord
  2
Layer113
 70
     0
 62
     7
  6
Continuous
370
    -3
390
F
  0
LAYER
  5
E2
330
2
100
AcDbSymbolTableRecord
100
AcDbLayerTableRecord
  2
Layer114
 70
     0
 62
     7
  6
Continuous
370
    -3
390
F
  0
LAYER
  5
E3
330
2
100
AcDbSymbolTableRecord
100
AcDbLayerTableRecord
  2
Layer115
 70
     0
 62
     7
  6
Continuous
370
    -3
390
F
  0
LAYER
  5
E4
330
2
100
AcDbSymbolTableRecord
100
AcDbLayerTableRecord
  2
Layer116
 70
     0
 62
     7
  6
Continuous
370
    -3
390
F
  0
LAYER
  5
E5
330
2
100
AcDbSymbolTableRecord
100
AcDbLayerTableRecord
  2
Layer117
 70
     0
 62
     7
  6
Continuous
370
    -3
390
F
  0
LAYER
  5
E6
330
2
100
AcDbSymbolTableRecord
100
AcDbLayerTableRecord
  2
Layer118
 70
     0
 62
     7
  6
Continuous
370
    -3
390
F
  0
LAYER
  5
E7
330
2
100
AcDbSymbolTableRecord
100
AcDbLayerTableRecord
  2
Layer119
 70
     0
 62
     7
  6
Continuous
370
    -3
390
F
  0
LAYER
  5
E8
330
2
100
AcDbSymbolTableRecord
100
AcDbLayerTableRecord
  2
Layer120
 70
     0
 62
     7
  6
Continuous
370
    -3
390
F
  0
LAYER
  5
E9
330
2
100
AcDbSymbolTableRecord
100
AcDbLayerTableRecord
  2
Layer121
 70
     0
 62
     7
  6
Continuous
370
    -3
390
F
  0
LAYER
  5
EA
330
2
100
AcDbSymbolTableRecord
100
AcDbLayerTableRecord
  2
Layer122
 70
     0
 62
     7
  6
Continuous
370
    -3
390
F
  0
LAYER
  5
EB
330
2
100
AcDbSymbolTableRecord
100
AcDbLayerTableRecord
  2
Layer123
 70
     0
 62
     7
  6
Continuous
370
    -3
390
F
  0
LAYER
  5
EC
330
2
100
AcDbSymbolTableRecord
100
AcDbLayerTableRecord
  2
Layer124
 70
     0
 62
     7
  6
Continuous
370
    -3
390
F
  0
LAYER
  5
ED
330
2
100
AcDbSymbolTableRecord
100
AcDbLayerTableRecord
  2
Layer125
 70
     0
 62
     7
  6
Continuous
370
    -3
390
F
  0
LAYER
  5
EE
330
2
100
AcDbSymbolTableRecord
100
AcDbLayerTableRecord
  2
Layer126
 70
     0
 62
     7
  6
Continuous
370
    -3
390
F
  0
LAYER
  5
EF
330
2
100
AcDbSymbolTableRecord
100
AcDbLayerTableRecord
  2
Layer127
 70
     0
 62
     7
  6
Continuous
370
    -3
390
F
  0
LAYER
  5
F0
330
2
100
AcDbSymbolTableRecord
100
AcDbLayerTableRecord
  2
Layer128
 70
     0
 62
     7
  6
Continuous
370
    -3
390
F
  0
LAYER
  5
F1
330
2
100
AcDbSymbolTableRecord
100
AcDbLayerTableRecord
  2
Layer129
 70
     0
 62
     7
  6
Continuous
370
    -3
390
F
  0
LAYER
  5
F2
330
2
100
AcDbSymbolTableRecord
100
AcDbLayerTableRecord
  2
Layer130
 70
     0
 62
     7
  6
Continuous
370
    -3
390
F
  0
LAYER
  5
F3
330
2
100
AcDbSymbolTableRecord
100
AcDbLayerTableRecord
  2
Layer131
 70
     0
 62
     7
  6
Continuous
370
    -3
390
F
  0
LAYER
  5
F4
330
2
100
AcDbSymbolTableRecord
100
AcDbLayerTableRecord
  2
Layer132
 70
     0
 62
     7
  6
Continuous
370
    -3
390
F
  0
LAYER
  5
F5
330
2
100
AcDbSymbolTableRecord
100
AcDbLayerTableRecord
  2
Layer133
 70
     0
 62
     7
  6
Continuous
370
    -3
390
F
  0
LAYER
  5
F6
330
2
100
AcDbSymbolTableRecord
100
AcDbLayerTableRecord
  2
Layer134
 70
     0
 62
     7
  6
Continuous
370
    -3
390
F
  0
LAYER
  5
F7
330
2
100
AcDbSymbolTableRecord
100
AcDbLayerTableRecord
  2
Layer135
 70
     0
 62
     7
  6
Continuous
370
    -3
390
F
  0
LAYER
  5
F8
330
2
100
AcDbSymbolTableRecord
100
AcDbLayerTableRecord
  2
Layer136
 70
     0
 62
     7
  6
Continuous
370
    -3
390
F
  0
LAYER
  5
F9
330
2
100
AcDbSymbolTableRecord
100
AcDbLayerTableRecord
  2
Layer137
 70
     0
 62
     7
  6
Continuous
370
    -3
390
F
  0
LAYER
  5
FA
330
2
100
AcDbSymbolTableRecord
100
AcDbLayerTableRecord
  2
Layer138
 70
     0
 62
     7
  6
Continuous
370
    -3
390
F
  0
LAYER
  5
FB
330
2
100
AcDbSymbolTableRecord
100
AcDbLayerTableRecord
  2
Layer139
 70
     0
 62
     7
  6
Continuous
370
    -3
390
F
  0
LAYER
  5
FC
330
2
100
AcDbSymbolTableRecord
100
AcDbLayerTableRecord
  2
Layer140
 70
     0
 62
     7
  6
Continuous
370
    -3
390
F
  0
LAYER
  5
FD
330
2
100
AcDbSymbolTableRecord
100
AcDbLayerTableRecord
  2
Layer141
 70
     0
 62
     7
  6
Continuous
370
    -3
390
F
  0
LAYER
  5
FE
330
2
100
AcDbSymbolTableRecord
100
AcDbLayerTableRecord
  2
Layer142
 70
     0
 62
     7
  6
Continuous
370
    -3
390
F
  0
LAYER
  5
FF
330
2
100
AcDbSymbolTableRecord
100
AcDbLayerTableRecord
  2
Layer143
 70
     0
 62
     7
  6
Continuous
370
    -3
390
F
  0
LAYER
  5
100
330
2
100
AcDbSymbolTableRecord
100
AcDbLayerTableRecord
  2
Layer144
 70
     0
 62
     7
  6
Continuous
370
    -3
390
F
  0
LAYER
  5
101
330
2
100
AcDbSymbolTableRecord
100
AcDbLayerTableRecord
  2
Layer145
 70
     0
 62
     7
  6
Continuous
370
    -3
390
F
  0
LAYER
  5
102
330
2
100
AcDbSymbolTableRecord
100
AcDbLayerTableRecord
  2
Layer146
 70
     0
 62
     7
  6
Continuous
370
    -3
390
F
  0
LAYER
  5
103
330
2
100
AcDbSymbolTableRecord
100
AcDbLayerTableRecord
  2
Layer147
 70
     0
 62
     7
  6
Continuous
370
    -3
390
F
  0
LAYER
  5
104
330
2
100
AcDbSymbolTableRecord
100
AcDbLayerTableRecord
  2
Layer148
 70
     0
 62
     7
  6
Continuous
370
    -3
390
F
  0
LAYER
  5
105
330
2
100
AcDbSymbolTableRecord
100
AcDbLayerTableRecord
  2
Layer149
 70
     0
 62
     7
  6
Continuous
370
    -3
390
F
  0
LAYER
  5
106
330
2
100
AcDbSymbolTableRecord
100
AcDbLayerTableRecord
  2
Layer150
 70
     0
 62
     7
  6
Continuous
370
    -3
390
F
  0
LAYER
  5
107
330
2
100
AcDbSymbolTableRecord
100
AcDbLayerTableRecord
  2
Layer151
 70
     0
 62
     7
  6
Continuous
370
    -3
390
F
  0
LAYER
  5
108
330
2
100
AcDbSymbolTableRecord
100
AcDbLayerTableRecord
  2
Layer152
 70
     0
 62
     7
  6
Continuous
370
    -3
390
F
  0
LAYER
  5
109
330
2
100
AcDbSymbolTableRecord
100
AcDbLayerTableRecord
  2
Layer153
 70
     0
 62
     7
  6
Continuous
370
    -3
390
F
  0
LAYER
  5
10A
330
2
100
AcDbSymbolTableRecord
100
AcDbLayerTableRecord
  2
Layer154
 70
     0
 62
     7
  6
Continuous
370
    -3
390
F
  0
LAYER
  5
10B
330
2
100
AcDbSymbolTableRecord
100
AcDbLayerTableRecord
  2
Layer155
 70
     0
 62
     7
  6
Continuous
370
    -3
390
F
  0
LAYER
  5
10C
330
2
100
AcDbSymbolTableRecord
100
AcDbLayerTableRecord
  2
Layer156
 70
     0
 62
     7
  6
Continuous
370
    -3
390
F
  0
LAYER
  5
10D
330
2
100
AcDbSymbolTableRecord
100
AcDbLayerTableRecord
  2
Layer157
 70
     0
 62
     7
  6
Continuous
370
    -3
390
F
  0
LAYER
  5
10E
330
2
100
AcDbSymbolTableRecord
100
AcDbLayerTableRecord
  2
Layer158
 70
     0
 62
     7
  6
Continuous
370
    -3
390
F
  0
LAYER
  5
10F
330
2
100
AcDbSymbolTableRecord
100
AcDbLayerTableRecord
  2
Layer159
 70
     0
 62
     7
  6
Continuous
370
    -3
390
F
  0
LAYER
  5
110
330
2
100
AcDbSymbolTableRecord
100
AcDbLayerTableRecord
  2
Layer160
 70
     0
 62
     7
  6
Continuous
370
    -3
390
F
  0
LAYER
  5
111
330
2
100
AcDbSymbolTableRecord
100
AcDbLayerTableRecord
  2
Layer161
 70
     0
 62
     7
  6
Continuous
370
    -3
390
F
  0
LAYER
  5
112
330
2
100
AcDbSymbolTableRecord
100
AcDbLayerTableRecord
  2
Layer162
 70
     0
 62
     7
  6
Continuous
370
    -3
390
F
  0
LAYER
  5
113
330
2
100
AcDbSymbolTableRecord
100
AcDbLayerTableRecord
  2
Layer163
 70
     0
 62
     7
  6
Continuous
370
    -3
390
F
  0
LAYER
  5
114
330
2
100
AcDbSymbolTableRecord
100
AcDbLayerTableRecord
  2
Layer164
 70
     0
 62
     7
  6
Continuous
370
    -3
390
F
  0
LAYER
  5
115
330
2
100
AcDbSymbolTableRecord
100
AcDbLayerTableRecord
  2
Layer165
 70
     0
 62
     7
  6
Continuous
370
    -3
390
F
  0
LAYER
  5
116
330
2
100
AcDbSymbolTableRecord
100
AcDbLayerTableRecord
  2
Layer166
 70
     0
 62
     7
  6
Continuous
370
    -3
390
F
  0
LAYER
  5
117
330
2
100
AcDbSymbolTableRecord
100
AcDbLayerTableRecord
  2
Layer167
 70
     0
 62
     7
  6
Continuous
370
    -3
390
F
  0
LAYER
  5
118
330
2
100
AcDbSymbolTableRecord
100
AcDbLayerTableRecord
  2
Layer168
 70
     0
 62
     7
  6
Continuous
370
    -3
390
F
  0
LAYER
  5
119
330
2
100
AcDbSymbolTableRecord
100
AcDbLayerTableRecord
  2
Layer169
 70
     0
 62
     7
  6
Continuous
370
    -3
390
F
  0
LAYER
  5
11A
330
2
100
AcDbSymbolTableRecord
100
AcDbLayerTableRecord
  2
Layer170
 70
     0
 62
     7
  6
Continuous
370
    -3
390
F
  0
LAYER
  5
11B
330
2
100
AcDbSymbolTableRecord
100
AcDbLayerTableRecord
  2
Layer171
 70
     0
 62
     7
  6
Continuous
370
    -3
390
F
  0
LAYER
  5
11C
330
2
100
AcDbSymbolTableRecord
100
AcDbLayerTableRecord
  2
Layer172
 70
     0
 62
     7
  6
Continuous
370
    -3
390
F
  0
LAYER
  5
11D
330
2
100
AcDbSymbolTableRecord
100
AcDbLayerTableRecord
  2
Layer173
 70
     0
 62
     7
  6
Continuous
370
    -3
390
F
  0
LAYER
  5
11E
330
2
100
AcDbSymbolTableRecord
100
AcDbLayerTableRecord
  2
Layer174
 70
     0
 62
     7
  6
Continuous
370
    -3
390
F
  0
LAYER
  5
11F
330
2
100
AcDbSymbolTableRecord
100
AcDbLayerTableRecord
  2
Layer175
 70
     0
 62
     7
  6
Continuous
370
    -3
390
F
  0
LAYER
  5
120
330
2
100
AcDbSymbolTableRecord
100
AcDbLayerTableRecord
  2
Layer176
 70
     0
 62
     7
  6
Continuous
370
    -3
390
F
  0
LAYER
  5
121
330
2
100
AcDbSymbolTableRecord
100
AcDbLayerTableRecord
  2
Layer177
 70
     0
 62
     7
  6
Continuous
370
    -3
390
F
  0
LAYER
  5
122
330
2
100
AcDbSymbolTableRecord
100
AcDbLayerTableRecord
  2
Layer178
 70
     0
 62
     7
  6
Continuous
370
    -3
390
F
  0
LAYER
  5
123
330
2
100
AcDbSymbolTableRecord
100
AcDbLayerTableRecord
  2
Layer179
 70
     0
 62
     7
  6
Continuous
370
    -3
390
F
  0
LAYER
  5
124
330
2
100
AcDbSymbolTableRecord
100
AcDbLayerTableRecord
  2
Layer180
 70
     0
 62
     7
  6
Continuous
370
    -3
390
F
  0
LAYER
  5
125
330
2
100
AcDbSymbolTableRecord
100
AcDbLayerTableRecord
  2
Layer181
 70
     0
 62
     7
  6
Continuous
370
    -3
390
F
  0
LAYER
  5
126
330
2
100
AcDbSymbolTableRecord
100
AcDbLayerTableRecord
  2
Layer182
 70
     0
 62
     7
  6
Continuous
370
    -3
390
F
  0
LAYER
  5
127
330
2
100
AcDbSymbolTableRecord
100
AcDbLayerTableRecord
  2
Layer183
 70
     0
 62
     7
  6
Continuous
370
    -3
390
F
  0
LAYER
  5
128
330
2
100
AcDbSymbolTableRecord
100
AcDbLayerTableRecord
  2
Layer184
 70
     0
 62
     7
  6
Continuous
370
    -3
390
F
  0
LAYER
  5
129
330
2
100
AcDbSymbolTableRecord
100
AcDbLayerTableRecord
  2
Layer185
 70
     0
 62
     7
  6
Continuous
370
    -3
390
F
  0
LAYER
  5
12A
330
2
100
AcDbSymbolTableRecord
100
AcDbLayerTableRecord
  2
Layer186
 70
     0
 62
     7
  6
Continuous
370
    -3
390
F
  0
LAYER
  5
12B
330
2
100
AcDbSymbolTableRecord
100
AcDbLayerTableRecord
  2
Layer187
 70
     0
 62
     7
  6
Continuous
370
    -3
390
F
  0
LAYER
  5
12C
330
2
100
AcDbSymbolTableRecord
100
AcDbLayerTableRecord
  2
Layer188
 70
     0
 62
     7
  6
Continuous
370
    -3
390
F
  0
LAYER
  5
12D
330
2
100
AcDbSymbolTableRecord
100
AcDbLayerTableRecord
  2
Layer189
 70
     0
 62
     7
  6
Continuous
370
    -3
390
F
  0
LAYER
  5
12E
330
2
100
AcDbSymbolTableRecord
100
AcDbLayerTableRecord
  2
Layer190
 70
     0
 62
     7
  6
Continuous
370
    -3
390
F
  0
LAYER
  5
12F
330
2
100
AcDbSymbolTableRecord
100
AcDbLayerTableRecord
  2
Layer191
 70
     0
 62
     7
  6
Continuous
370
    -3
390
F
  0
LAYER
  5
130
330
2
100
AcDbSymbolTableRecord
100
AcDbLayerTableRecord
  2
Layer192
 70
     0
 62
     7
  6
Continuous
370
    -3
390
F
  0
LAYER
  5
131
330
2
100
AcDbSymbolTableRecord
100
AcDbLayerTableRecord
  2
Layer193
 70
     0
 62
     7
  6
Continuous
370
    -3
390
F
  0
LAYER
  5
132
330
2
100
AcDbSymbolTableRecord
100
AcDbLayerTableRecord
  2
Layer194
 70
     0
 62
     7
  6
Continuous
370
    -3
390
F
  0
LAYER
  5
133
330
2
100
AcDbSymbolTableRecord
100
AcDbLayerTableRecord
  2
Layer195
 70
     0
 62
     7
  6
Continuous
370
    -3
390
F
  0
LAYER
  5
134
330
2
100
AcDbSymbolTableRecord
100
AcDbLayerTableRecord
  2
Layer196
 70
     0
 62
     7
  6
Continuous
370
    -3
390
F
  0
LAYER
  5
135
330
2
100
AcDbSymbolTableRecord
100
AcDbLayerTableRecord
  2
Layer197
 70
     0
 62
     7
  6
Continuous
370
    -3
390
F
  0
LAYER
  5
136
330
2
100
AcDbSymbolTableRecord
100
AcDbLayerTableRecord
  2
Layer198
 70
     0
 62
     7
  6
Continuous
370
    -3
390
F
  0
LAYER
  5
137
330
2
100
AcDbSymbolTableRecord
100
AcDbLayerTableRecord
  2
Layer199
 70
     0
 62
     7
  6
Continuous
370
    -3
390
F
  0
LAYER
  5
138
330
2
100
AcDbSymbolTableRecord
100
AcDbLayerTableRecord
  2
Layer200
 70
     0
 62
     7
  6
Continuous
370
    -3
390
F
  0
LAYER
  5
139
330
2
100
AcDbSymbolTableRecord
100
AcDbLayerTableRecord
  2
Layer201
 70
     0
 62
     7
  6
Continuous
370
    -3
390
F
  0
LAYER
  5
13A
330
2
100
AcDbSymbolTableRecord
100
AcDbLayerTableRecord
  2
Layer202
 70
     0
 62
     7
  6
Continuous
370
    -3
390
F
  0
LAYER
  5
13B
330
2
100
AcDbSymbolTableRecord
100
AcDbLayerTableRecord
  2
Layer203
 70
     0
 62
     7
  6
Continuous
370
    -3
390
F
  0
LAYER
  5
13C
330
2
100
AcDbSymbolTableRecord
100
AcDbLayerTableRecord
  2
Layer204
 70
     0
 62
     7
  6
Continuous
370
    -3
390
F
  0
LAYER
  5
13D
330
2
100
AcDbSymbolTableRecord
100
AcDbLayerTableRecord
  2
Layer205
 70
     0
 62
     7
  6
Continuous
370
    -3
390
F
  0
LAYER
  5
13E
330
2
100
AcDbSymbolTableRecord
100
AcDbLayerTableRecord
  2
Layer206
 70
     0
 62
     7
  6
Continuous
370
    -3
390
F
  0
LAYER
  5
13F
330
2
100
AcDbSymbolTableRecord
100
AcDbLayerTableRecord
  2
Layer207
 70
     0
 62
     7
  6
Continuous
370
    -3
390
F
  0
LAYER
  5
140
330
2
100
AcDbSymbolTableRecord
100
AcDbLayerTableRecord
  2
Layer208
 70
     0
 62
     7
  6
Continuous
370
    -3
390
F
  0
LAYER
  5
141
330
2
100
AcDbSymbolTableRecord
100
AcDbLayerTableRecord
  2
Layer209
 70
     0
 62
     7
  6
Continuous
370
    -3
390
F
  0
LAYER
  5
142
330
2
100
AcDbSymbolTableRecord
100
AcDbLayerTableRecord
  2
Layer210
 70
     0
 62
     7
  6
Continuous
370
    -3
390
F
  0
LAYER
  5
143
330
2
100
AcDbSymbolTableRecord
100
AcDbLayerTableRecord
  2
Layer211
 70
     0
 62
     7
  6
Continuous
370
    -3
390
F
  0
LAYER
  5
144
330
2
100
AcDbSymbolTableRecord
100
AcDbLayerTableRecord
  2
Layer212
 70
     0
 62
     7
  6
Continuous
370
    -3
390
F
  0
LAYER
  5
145
330
2
100
AcDbSymbolTableRecord
100
AcDbLayerTableRecord
  2
Layer213
 70
     0
 62
     7
  6
Continuous
370
    -3
390
F
  0
LAYER
  5
146
330
2
100
AcDbSymbolTableRecord
100
AcDbLayerTableRecord
  2
Layer214
 70
     0
 62
     7
  6
Continuous
370
    -3
390
F
  0
LAYER
  5
147
330
2
100
AcDbSymbolTableRecord
100
AcDbLayerTableRecord
  2
Layer215
 70
     0
 62
     7
  6
Continuous
370
    -3
390
F
  0
LAYER
  5
148
330
2
100
AcDbSymbolTableRecord
100
AcDbLayerTableRecord
  2
Layer216
 70
     0
 62
     7
  6
Continuous
370
    -3
390
F
  0
LAYER
  5
149
330
2
100
AcDbSymbolTableRecord
100
AcDbLayerTableRecord
  2
Layer217
 70
     0
 62
     7
  6
Continuous
370
    -3
390
F
  0
LAYER
  5
14A
330
2
100
AcDbSymbolTableRecord
100
AcDbLayerTableRecord
  2
Layer218
 70
     0
 62
     7
  6
Continuous
370
    -3
390
F
  0
LAYER
  5
14B
330
2
100
AcDbSymbolTableRecord
100
AcDbLayerTableRecord
  2
Layer219
 70
     0
 62
     7
  6
Continuous
370
    -3
390
F
  0
LAYER
  5
14C
330
2
100
AcDbSymbolTableRecord
100
AcDbLayerTableRecord
  2
Layer220
 70
     0
 62
     7
  6
Continuous
370
    -3
390
F
  0
LAYER
  5
14D
330
2
100
AcDbSymbolTableRecord
100
AcDbLayerTableRecord
  2
Layer221
 70
     0
 62
     7
  6
Continuous
370
    -3
390
F
  0
LAYER
  5
14E
330
2
100
AcDbSymbolTableRecord
100
AcDbLayerTableRecord
  2
Layer222
 70
     0
 62
     7
  6
Continuous
370
    -3
390
F
  0
LAYER
  5
14F
330
2
100
AcDbSymbolTableRecord
100
AcDbLayerTableRecord
  2
Layer223
 70
     0
 62
     7
  6
Continuous
370
    -3
390
F
  0
LAYER
  5
150
330
2
100
AcDbSymbolTableRecord
100
AcDbLayerTableRecord
  2
Layer224
 70
     0
 62
     7
  6
Continuous
370
    -3
390
F
  0
LAYER
  5
151
330
2
100
AcDbSymbolTableRecord
100
AcDbLayerTableRecord
  2
Layer225
 70
     0
 62
     7
  6
Continuous
370
    -3
390
F
  0
LAYER
  5
152
330
2
100
AcDbSymbolTableRecord
100
AcDbLayerTableRecord
  2
Layer226
 70
     0
 62
     7
  6
Continuous
370
    -3
390
F
  0
LAYER
  5
153
330
2
100
AcDbSymbolTableRecord
100
AcDbLayerTableRecord
  2
Layer227
 70
     0
 62
     7
  6
Continuous
370
    -3
390
F
  0
LAYER
  5
154
330
2
100
AcDbSymbolTableRecord
100
AcDbLayerTableRecord
  2
Layer228
 70
     0
 62
     7
  6
Continuous
370
    -3
390
F
  0
LAYER
  5
155
330
2
100
AcDbSymbolTableRecord
100
AcDbLayerTableRecord
  2
Layer229
 70
     0
 62
     7
  6
Continuous
370
    -3
390
F
  0
LAYER
  5
156
330
2
100
AcDbSymbolTableRecord
100
AcDbLayerTableRecord
  2
Layer230
 70
     0
 62
     7
  6
Continuous
370
    -3
390
F
  0
LAYER
  5
157
330
2
100
AcDbSymbolTableRecord
100
AcDbLayerTableRecord
  2
Layer231
 70
     0
 62
     7
  6
Continuous
370
    -3
390
F
  0
LAYER
  5
158
330
2
100
AcDbSymbolTableRecord
100
AcDbLayerTableRecord
  2
Layer232
 70
     0
 62
     7
  6
Continuous
370
    -3
390
F
  0
LAYER
  5
159
330
2
100
AcDbSymbolTableRecord
100
AcDbLayerTableRecord
  2
Layer233
 70
     0
 62
     7
  6
Continuous
370
    -3
390
F
  0
LAYER
  5
15A
330
2
100
AcDbSymbolTableRecord
100
AcDbLayerTableRecord
  2
Layer234
 70
     0
 62
     7
  6
Continuous
370
    -3
390
F
  0
LAYER
  5
15B
330
2
100
AcDbSymbolTableRecord
100
AcDbLayerTableRecord
  2
Layer235
 70
     0
 62
     7
  6
Continuous
370
    -3
390
F
  0
LAYER
  5
15C
330
2
100
AcDbSymbolTableRecord
100
AcDbLayerTableRecord
  2
Layer236
 70
     0
 62
     7
  6
Continuous
370
    -3
390
F
  0
LAYER
  5
15D
330
2
100
AcDbSymbolTableRecord
100
AcDbLayerTableRecord
  2
Layer237
 70
     0
 62
     7
  6
Continuous
370
    -3
390
F
  0
LAYER
  5
15E
330
2
100
AcDbSymbolTableRecord
100
AcDbLayerTableRecord
  2
Layer238
 70
     0
 62
     7
  6
Continuous
370
    -3
390
F
  0
LAYER
  5
15F
330
2
100
AcDbSymbolTableRecord
100
AcDbLayerTableRecord
  2
Layer239
 70
     0
 62
     7
  6
Continuous
370
    -3
390
F
  0
LAYER
  5
160
330
2
100
AcDbSymbolTableRecord
100
AcDbLayerTableRecord
  2
Layer240
 70
     0
 62
     7
  6
Continuous
370
    -3
390
F
  0
LAYER
  5
161
330
2
100
AcDbSymbolTableRecord
100
AcDbLayerTableRecord
  2
Layer241
 70
     0
 62
     7
  6
Continuous
370
    -3
390
F
  0
LAYER
  5
162
330
2
100
AcDbSymbolTableRecord
100
AcDbLayerTableRecord
  2
Layer242
 70
     0
 62
     7
  6
Continuous
370
    -3
390
F
  0
LAYER
  5
163
330
2
100
AcDbSymbolTableRecord
100
AcDbLayerTableRecord
  2
Layer243
 70
     0
 62
     7
  6
Continuous
370
    -3
390
F
  0
LAYER
  5
164
330
2
100
AcDbSymbolTableRecord
100
AcDbLayerTableRecord
  2
Layer244
 70
     0
 62
     7
  6
Continuous
370
    -3
390
F
  0
LAYER
  5
165
330
2
100
AcDbSymbolTableRecord
100
AcDbLayerTableRecord
  2
Layer245
 70
     0
 62
     7
  6
Continuous
370
    -3
390
F
  0
LAYER
  5
166
330
2
100
AcDbSymbolTableRecord
100
AcDbLayerTableRecord
  2
Layer246
 70
     0
 62
     7
  6
Continuous
370
    -3
390
F
  0
LAYER
  5
167
330
2
100
AcDbSymbolTableRecord
100
AcDbLayerTableRecord
  2
Layer247
 70
     0
 62
     7
  6
Continuous
370
    -3
390
F
  0
LAYER
  5
168
330
2
100
AcDbSymbolTableRecord
100
AcDbLayerTableRecord
  2
Layer248
 70
     0
 62
     7
  6
Continuous
370
    -3
390
F
  0
LAYER
  5
169
330
2
100
AcDbSymbolTableRecord
100
AcDbLayerTableRecord
  2
Layer249
 70
     0
 62
     7
  6
Continuous
370
    -3
390
F
  0
LAYER
  5
16A
330
2
100
AcDbSymbolTableRecord
100
AcDbLayerTableRecord
  2
Layer250
 70
     0
 62
     7
  6
Continuous
370
    -3
390
F
  0
LAYER
  5
16B
330
2
100
AcDbSymbolTableRecord
100
AcDbLayerTableRecord
  2
Layer251
 70
     0
 62
     7
  6
Continuous
370
    -3
390
F
  0
LAYER
  5
16C
330
2
100
AcDbSymbolTableRecord
100
AcDbLayerTableRecord
  2
Layer252
 70
     0
 62
     7
  6
Continuous
370
    -3
390
F
  0
LAYER
  5
16D
330
2
100
AcDbSymbolTableRecord
100
AcDbLayerTableRecord
  2
Layer253
 70
     0
 62
     7
  6
Continuous
370
    -3
390
F
  0
LAYER
  5
16E
330
2
100
AcDbSymbolTableRecord
100
AcDbLayerTableRecord
  2
Layer254
 70
     0
 62
     7
  6
Continuous
370
    -3
390
F
  0
LAYER
  5
16F
330
2
100
AcDbSymbolTableRecord
100
AcDbLayerTableRecord
  2
Layer255
 70
     0
 62
     7
  6
Continuous
370
    -3
390
F
  0
ENDTAB
  0
TABLE
  2
STYLE
  5
3
330
0
100
AcDbSymbolTable
 70
     5
  0
STYLE
  5
11
330
3
100
AcDbSymbolTableRecord
100
AcDbTextStyleTableRecord
  2
Standard
 70
     0
 40
0.0
 41
1.0
 50
0.0
 71
     0
 42
2.5
  3
txt
  4

  0
STYLE
  5
6C
330
3
100
AcDbSymbolTableRecord
100
AcDbTextStyleTableRecord
  2
Arial
 70
     0
 40
0.0
 41
1.0
 50
0.0
 71
     0
 42
2.5
  3
arial.ttf
  4

1001
ACAD
1000
Arial
1071
       34
  0
STYLE
  5
6D
330
3
100
AcDbSymbolTableRecord
100
AcDbTextStyleTableRecord
  2
Lucida Calligraphy
 70
     0
 40
0.0
 41
1.0
 50
0.0
 71
     0
 42
2.5
  3
arial.ttf
  4

1001
ACAD
1000
Arial
1071
       66
  0
STYLE
  5
6E
330
3
100
AcDbSymbolTableRecord
100
AcDbTextStyleTableRecord
  2
Brush Script MT
 70
     0
 40
0.0
 41
1.0
 50
0.0
 71
     0
 42
2.5
  3

  4

1001
ACAD
1000
Arial
1071
       66
  0
STYLE
  5
6F
330
3
100
AcDbSymbolTableRecord
100
AcDbTextStyleTableRecord
  2
Toleranzfont
 70
     0
 40
0.0
 41
1.0
 50
0.0
 71
     0
 42
2.5
  3
IGES1003.SHX
  4

  0
ENDTAB
  0
TABLE
  2
VIEW
  5
6
330
0
100
AcDbSymbolTable
 70
     0
  0
ENDTAB
  0
TABLE
  2
UCS
  5
7
330
0
100
AcDbSymbolTable
 70
     0
  0
ENDTAB
  0
TABLE
  2
APPID
  5
9
330
0
100
AcDbSymbolTable
 70
     1
  0
APPID
  5
12
330
9
100
AcDbSymbolTableRecord
100
AcDbRegAppTableRecord
  2
ACAD
 70
     0
  0
ENDTAB
  0
TABLE
  2
DIMSTYLE
  5
A
330
0
100
AcDbSymbolTable
 70
     1
100
AcDbDimStyleTable
  0
DIMSTYLE
105
27
330
A
100
AcDbSymbolTableRecord
100
AcDbDimStyleTableRecord
  2
ISO-25
 70
     0
 41
2.5
 42
0.625
 43
3.75
 44
1.25
 73
     0
 74
     0
 77
     1
 78
     8
140
2.5
141
2.5
143
0.03937007874
147
0.625
171
     3
172
     1
178
     0
271
     2
272
     2
274
     3
278
    44
283
     0
284
     8
340
11
  0
ENDTAB
  0
TABLE
  2
BLOCK_RECORD
  5
1
330
0
100
AcDbSymbolTable
 70
    12
  0
BLOCK_RECORD
  5
1F
330
1
100
AcDbSymbolTableRecord
100
AcDbBlockTableRecord
  2
*Model_Space
340
22
  0
BLOCK_RECORD
  5
1B
330
1
100
AcDbSymbolTableRecord
100
AcDbBlockTableRecord
  2
*Paper_Space
340
1E
  0
BLOCK_RECORD
  5
23
330
1
100
AcDbSymbolTableRecord
100
AcDbBlockTableRecord
  2
*Paper_Space0
340
26
  0
BLOCK_RECORD
  5
170
330
1
100
AcDbSymbolTableRecord
100
AcDbBlockTableRecord
  2
Inch
340
0
102
{BLKREFS
331
2EA
102
}
  0
BLOCK_RECORD
  5
1B9
330
1
100
AcDbSymbolTableRecord
100
AcDbBlockTableRecord
  2
DimBlk_nNn01
340
0
102
{BLKREFS
331
1C3
102
}
  0
BLOCK_RECORD
  5
1C4
330
1
100
AcDbSymbolTableRecord
100
AcDbBlockTableRecord
  2
DimBlk_nNn02
340
0
102
{BLKREFS
331
1CE
102
}
  0
BLOCK_RECORD
  5
1CF
330
1
100
AcDbSymbolTableRecord
100
AcDbBlockTableRecord
  2
DimBlk_nNn03
340
0
102
{BLKREFS
331
1D9
102
}
  0
BLOCK_RECORD
  5
1DA
330
1
100
AcDbSymbolTableRecord
100
AcDbBlockTableRecord
  2
DimBlk_nNn04
340
0
102
{BLKREFS
331
1E3
102
}
  0
BLOCK_RECORD
  5
1E4
330
1
100
AcDbSymbolTableRecord
100
AcDbBlockTableRecord
  2
DimBlk_nNn05
340
0
102
{BLKREFS
331
1EC
102
}
  0
BLOCK_RECORD
  5
1ED
330
1
100
AcDbSymbolTableRecord
100
AcDbBlockTableRecord
  2
DimBlk_nNn06
340
0
102
{BLKREFS
331
1F5
102
}
  0
BLOCK_RECORD
  5
1F6
330
1
100
AcDbSymbolTableRecord
100
AcDbBlockTableRecord
  2
DimBlk_nNn07
340
0
102
{BLKREFS
331
1FE
102
}
  0
BLOCK_RECORD
  5
1FF
330
1
100
AcDbSymbolTableRecord
100
AcDbBlockTableRecord
  2
DimBlk_nNn08
340
0
102
{BLKREFS
331
208
102
}
  0
BLOCK_RECORD
  5
209
330
1
100
AcDbSymbolTableRecord
100
AcDbBlockTableRecord
  2
DimBlk_nNn09
340
0
102
{BLKREFS
331
211
102
}
  0
BLOCK_RECORD
  5
28D
330
1
100
AcDbSymbolTableRecord
100
AcDbBlockTableRecord
  2
*X11
340
0
102
{BLKREFS
331
2E5
102
}
  0
ENDTAB
  0
ENDSEC
  0
SECTION
  2
BLOCKS
  0
BLOCK
  5
20
330
1F
100
AcDbEntity
  8
0
100
AcDbBlockBegin
  2
*Model_Space
 70
     0
 10
0.0
 20
0.0
 30
0.0
  3
*Model_Space
  1
*Model_Space
  0
ENDBLK
  5
21
330
1F
100
AcDbEntity
  8
0
100
AcDbBlockEnd
  0
BLOCK
  5
1C
330
1B
100
AcDbEntity
 67
     1
  8
0
100
AcDbBlockBegin
  2
*Paper_Space
 70
     0
 10
0.0
 20
0.0
 30
0.0
  3
*Paper_Space
  1
*Paper_Space
  0
ENDBLK
  5
1D
330
1B
100
AcDbEntity
 67
     1
  8
0
100
AcDbBlockEnd
  0
BLOCK
  5
24
330
23
100
AcDbEntity
  8
0
100
AcDbBlockBegin
  2
*Paper_Space0
 70
     0
 10
0.0
 20
0.0
 30
0.0
  3
*Paper_Space0
  1
*Paper_Space0
  0
ENDBLK
  5
25
330
23
100
AcDbEntity
  8
0
100
AcDbBlockEnd
  0
BLOCK
  5
171
330
170
100
AcDbEntity
  8
0
100
AcDbBlockBegin
  2
Inch
 70
     0
 10
0.0
 20
0.0
 30
0.0
  3
Inch
  1
Inch
  0
LINE
  5
173
330
170
100
AcDbEntity
  8
PROFILE
  6
AUSGEZOGEN
 62
     7
420
 16777215
370
    18
100
AcDbLine
 10
154.388260182397
 20
61.093115561191
 30
0.0
 11
135.635847580333
 21
61.093115561191
 31
0.0
  0
LINE
  5
174
330
170
100
AcDbEntity
  8
PROFILE
  6
AUSGEZOGEN
 62
     5
420
      255
370
    18
100
AcDbLine
 10
131.673447580333
 20
81.743315561191
 30
0.0
 11
131.673447580333
 21
65.055515561191
 31
0.0
  0
ARC
  5
175
330
170
100
AcDbEntity
  8
PROFILE
  6
AUSGEZOGEN
 62
     7
420
 16777215
370
    18
100
AcDbCircle
 10
135.635847580333
 20
65.055515561191
 30
0.0
 40
3.9624
100
AcDbArc
 50
188.000000000001
 51
270.0
  0
LINE
  5
176
330
170
100
AcDbEntity
  8
PROFILE
  6
AUSGEZOGEN
 62
     5
420
      255
370
    18
100
AcDbLine
 10
150.723447580333
 20
81.743315561191
 30
0.0
 11
131.673447580333
 21
81.743315561191
 31
0.0
  0
LINE
  5
177
330
170
100
AcDbEntity
  8
PROFILE
  6
AUSGEZOGEN
 62
     5
420
      255
370
    18
100
AcDbLine
 10
233.273447580333
 20
81.743315561191
 30
0.0
 11
214.223447580333
 21
81.743315561191
 31
0.0
  0
ARC
  5
178
330
170
100
AcDbEntity
  8
PROFILE
  6
AUSGEZOGEN
 62
     7
420
 16777215
370
    18
100
AcDbCircle
 10
165.849838810705
 20
57.587861115909
 30
0.0
 40
11.98559941676085
100
AcDbArc
 50
94.195583182005
 51
162.994979570309
  0
LINE
  5
179
330
170
100
AcDbEntity
  8
PROFILE
  6
AUSGEZOGEN
 62
     7
420
 16777215
370
    18
100
AcDbLine
 10
214.025411478165
 20
70.945948725537
 30
0.0
 11
208.488211478165
 21
70.945948725537
 31
0.0
  0
LINE
  5
17A
330
170
100
AcDbEntity
  8
PROFILE
  6
AUSGEZOGEN
 62
     7
420
 16777215
370
    18
100
AcDbLine
 10
226.93191579248
 20
70.945948725537
 30
0.0
 11
221.39471579248
 21
70.945948725537
 31
0.0
  0
LINE
  5
17B
330
170
100
AcDbEntity
  8
PROFILE
  6
AUSGEZOGEN
 62
     5
420
      255
370
    18
100
AcDbLine
 10
233.273447580333
 20
52.253042408517
 30
0.0
 11
233.273447580333
 21
36.84787124684
 31
0.0
  0
LINE
  5
17C
330
170
100
AcDbEntity
  8
PROFILE
  6
AUSGEZOGEN
 62
     5
420
      255
370
    18
100
AcDbLine
 10
233.273447580333
 20
81.743315561191
 30
0.0
 11
233.273447580333
 21
76.968115561191
 31
0.0
  0
ARC
  5
17D
330
170
100
AcDbEntity
  8
PROFILE
  6
AUSGEZOGEN
 62
     7
420
 16777215
370
    18
100
AcDbCircle
 10
233.273447580333
 20
70.618115561191
 30
0.0
 40
6.349999999999998
100
AcDbArc
 50
90.0
 51
177.040659703182
  0
LINE
  5
17E
330
170
100
AcDbEntity
  8
PROFILE
  6
AUSGEZOGEN
 62
     7
420
 16777215
370
    18
100
AcDbLine
 10
214.025411478165
 20
70.945948725537
 30
0.0
 11
214.087179884847
 21
70.358261592606
 31
0.0
  0
LINE
  5
17F
330
170
100
AcDbEntity
  8
PROFILE
  6
AUSGEZOGEN
 62
     7
420
 16777215
370
    18
100
AcDbLine
 10
221.39471579248
 20
70.945948725537
 30
0.0
 11
221.332947385797
 21
70.358261592606
 31
0.0
  0
ARC
  5
180
330
170
100
AcDbEntity
  8
PROFILE
  6
AUSGEZOGEN
 62
     7
420
 16777215
370
    18
100
AcDbCircle
 10
217.710063635322
 20
70.739042018656
 30
0.0
 40
3.642839606999101
100
AcDbArc
 50
186.0
 51
354.0
  0
LINE
  5
181
330
170
100
AcDbEntity
  8
PROFILE
  6
AUSGEZOGEN
 62
     5
420
      255
370
    18
100
AcDbLine
 10
212.635947580333
 20
80.155815561191
 30
0.0
 11
152.310947580333
 21
80.155815561191
 31
0.0
  0
LINE
  5
182
330
170
100
AcDbEntity
  8
PROFILE
  6
AUSGEZOGEN
 62
     5
420
      255
370
    18
100
AcDbLine
 10
214.223447580333
 20
81.743315561191
 30
0.0
 11
212.635947580333
 21
80.155815561191
 31
0.0
  0
LINE
  5
183
330
170
100
AcDbEntity
  8
PROFILE
  6
AUSGEZOGEN
 62
     5
420
      255
370
    18
100
AcDbLine
 10
150.723447580333
 20
81.743315561191
 30
0.0
 11
152.310947580333
 21
80.155815561191
 31
0.0
  0
ARC
  5
184
330
170
100
AcDbEntity
  8
PROFILE
  6
AUSGEZOGEN
 62
     7
420
 16777215
370
    18
100
AcDbCircle
 10
176.428208431827
 20
73.640809438894
 30
0.0
 40
12.1666938777027
100
AcDbArc
 50
199.690666833012
 51
300.862635759177
  0
ARC
  5
185
330
170
100
AcDbEntity
  8
PROFILE
  6
AUSGEZOGEN
 62
     7
420
 16777215
370
    18
100
AcDbCircle
 10
202.505476005758
 20
66.030968238877
 30
0.0
 40
7.742748666787291
100
AcDbArc
 50
39.404037980451
 51
120.862635759177
  0
LINE
  5
186
330
170
100
AcDbEntity
  8
PROFILE
  6
AUSGEZOGEN
 62
     7
420
 16777215
370
    18
100
AcDbLine
 10
198.533588608589
 20
72.677340739816
 30
0.0
 11
182.669498206008
 21
63.196924057081
 31
0.0
  0
LINE
  5
187
330
170
100
AcDbEntity
  8
PROFILE
  6
AUSGEZOGEN
 62
    16
420
  8388608
370
    18
100
AcDbLine
 10
154.279039094219
 20
141.654740136411
 30
0.0
 11
135.526626492155
 21
141.654740136411
 31
0.0
  0
LINE
  5
188
330
170
100
AcDbEntity
  8
PROFILE
  6
AUSGEZOGEN
 62
    16
420
  8388608
370
    18
100
AcDbLine
 10
131.564226492155
 20
121.004540136411
 30
0.0
 11
131.564226492155
 21
137.692340136411
 31
0.0
  0
ARC
  5
189
330
170
100
AcDbEntity
  8
PROFILE
  6
AUSGEZOGEN
 62
    16
420
  8388608
370
    18
100
AcDbCircle
 10
135.526626492155
 20
137.692340136411
 30
0.0
 40
3.962400000000002
100
AcDbArc
 50
90.0
 51
180.0
  0
LINE
  5
18A
330
170
100
AcDbEntity
  8
PROFILE
  6
AUSGEZOGEN
 62
    16
420
  8388608
370
    18
100
AcDbLine
 10
150.614226492155
 20
121.004540136411
 30
0.0
 11
131.564226492155
 21
121.004540136411
 31
0.0
  0
LINE
  5
18B
330
170
100
AcDbEntity
  8
PROFILE
  6
AUSGEZOGEN
 62
    16
420
  8388608
370
    18
100
AcDbLine
 10
233.164226492155
 20
121.004540136411
 30
0.0
 11
214.114226492155
 21
121.004540136411
 31
0.0
  0
ARC
  5
18C
330
170
100
AcDbEntity
  8
PROFILE
  6
AUSGEZOGEN
 62
    16
420
  8388608
370
    18
100
AcDbCircle
 10
165.740617722527
 20
145.159994581693
 30
0.0
 40
11.98559941676086
100
AcDbArc
 50
197.005020429691
 51
265.804416817995
  0
LINE
  5
18D
330
170
100
AcDbEntity
  8
PROFILE
  6
AUSGEZOGEN
 62
    16
420
  8388608
370
    18
100
AcDbLine
 10
213.916190389987
 20
131.801906972065
 30
0.0
 11
208.378990389987
 21
131.801906972065
 31
0.0
  0
LINE
  5
18E
330
170
100
AcDbEntity
  8
PROFILE
  6
AUSGEZOGEN
 62
    16
420
  8388608
370
    18
100
AcDbLine
 10
226.822694704302
 20
131.801906972065
 30
0.0
 11
221.285494704302
 21
131.801906972065
 31
0.0
  0
LINE
  5
18F
330
170
100
AcDbEntity
  8
PROFILE
  6
AUSGEZOGEN
 62
    16
420
  8388608
370
    18
100
AcDbLine
 10
233.164226492155
 20
121.004540136411
 30
0.0
 11
233.164226492155
 21
125.779740136411
 31
0.0
  0
ARC
  5
190
330
170
100
AcDbEntity
  8
PROFILE
  6
AUSGEZOGEN
 62
    16
420
  8388608
370
    18
100
AcDbCircle
 10
233.164226492155
 20
132.129740136411
 30
0.0
 40
6.349999999999967
100
AcDbArc
 50
182.959340296817
 51
270.0
  0
LINE
  5
191
330
170
100
AcDbEntity
  8
PROFILE
  6
AUSGEZOGEN
 62
    16
420
  8388608
370
    18
100
AcDbLine
 10
213.916190389987
 20
131.801906972065
 30
0.0
 11
213.977958796669
 21
132.389594104995
 31
0.0
  0
LINE
  5
192
330
170
100
AcDbEntity
  8
PROFILE
  6
AUSGEZOGEN
 62
    16
420
  8388608
370
    18
100
AcDbLine
 10
221.285494704302
 20
131.801906972065
 30
0.0
 11
221.22372629762
 21
132.389594104995
 31
0.0
  0
ARC
  5
193
330
170
100
AcDbEntity
  8
PROFILE
  6
AUSGEZOGEN
 62
    16
420
  8388608
370
    18
100
AcDbCircle
 10
217.600842547144
 20
132.008813678945
 30
0.0
 40
3.642839606999132
100
AcDbArc
 50
6.0
 51
174.0
  0
LINE
  5
194
330
170
100
AcDbEntity
  8
PROFILE
  6
AUSGEZOGEN
 62
    16
420
  8388608
370
    18
100
AcDbLine
 10
212.526726492155
 20
122.592040136411
 30
0.0
 11
152.201726492155
 21
122.592040136411
 31
0.0
  0
LINE
  5
195
330
170
100
AcDbEntity
  8
PROFILE
  6
AUSGEZOGEN
 62
    16
420
  8388608
370
    18
100
AcDbLine
 10
214.114226492155
 20
121.004540136411
 30
0.0
 11
212.526726492155
 21
122.592040136411
 31
0.0
  0
LINE
  5
196
330
170
100
AcDbEntity
  8
PROFILE
  6
AUSGEZOGEN
 62
    16
420
  8388608
370
    18
100
AcDbLine
 10
150.614226492155
 20
121.004540136411
 30
0.0
 11
152.201726492155
 21
122.592040136411
 31
0.0
  0
ARC
  5
197
330
170
100
AcDbEntity
  8
PROFILE
  6
AUSGEZOGEN
 62
    16
420
  8388608
370
    18
100
AcDbCircle
 10
176.318987343649
 20
129.107046258708
 30
0.0
 40
12.1666938777027
100
AcDbArc
 50
59.137364240823
 51
160.309333166988
  0
ARC
  5
198
330
170
100
AcDbEntity
  8
PROFILE
  6
AUSGEZOGEN
 62
    16
420
  8388608
370
    18
100
AcDbCircle
 10
202.396254917581
 20
136.716887458725
 30
0.0
 40
7.742748666787291
100
AcDbArc
 50
239.137364240823
 51
320.595962019549
  0
LINE
  5
199
330
170
100
AcDbEntity
  8
PROFILE
  6
AUSGEZOGEN
 62
    16
420
  8388608
370
    18
100
AcDbLine
 10
198.424367520411
 20
130.070514957786
 30
0.0
 11
182.56027711783
 21
139.55093164052
 31
0.0
  0
LINE
  5
19A
330
170
100
AcDbEntity
  8
PROFILE
  6
AUSGEZOGEN
 62
    16
420
  8388608
370
    18
100
AcDbLine
 10
161.350106906085
 20
148.725807948276
 30
0.0
 11
142.597694304021
 21
148.725807948276
 31
0.0
  0
ARC
  5
19B
330
170
100
AcDbEntity
  8
PROFILE
  6
AUSGEZOGEN
 62
    16
420
  8388608
370
    18
100
AcDbCircle
 10
142.597694304021
 20
144.763407948276
 30
0.0
 40
3.962400000000002
100
AcDbArc
 50
90.0
 51
135.0
  0
ARC
  5
19C
330
170
100
AcDbEntity
  8
PROFILE
  6
AUSGEZOGEN
 62
    16
420
  8388608
370
    18
100
AcDbCircle
 10
172.811685534393
 20
152.231062393558
 30
0.0
 40
11.9855994167608
100
AcDbArc
 50
197.005020429691
 51
258.782486201725
  0
LINE
  5
19D
330
170
100
AcDbEntity
  8
PROFILE
  6
AUSGEZOGEN
 62
    16
420
  8388608
370
    18
100
AcDbLine
 10
219.313250474362
 20
138.872974783931
 30
0.0
 11
215.450058201852
 21
138.872974783931
 31
0.0
  0
LINE
  5
19E
330
170
100
AcDbEntity
  8
PROFILE
  6
AUSGEZOGEN
 62
    16
420
  8388608
370
    18
100
AcDbLine
 10
233.893762516167
 20
138.872974783931
 30
0.0
 11
228.356562516167
 21
138.872974783931
 31
0.0
  0
LINE
  5
19F
330
170
100
AcDbEntity
  8
PROFILE
  6
AUSGEZOGEN
 62
    16
420
  8388608
370
    18
100
AcDbLine
 10
240.235294304021
 20
128.075607948276
 30
0.0
 11
240.235294304021
 21
132.850807948276
 31
0.0
  0
ARC
  5
1A0
330
170
100
AcDbEntity
  8
PROFILE
  6
AUSGEZOGEN
 62
    16
420
  8388608
370
    18
100
AcDbCircle
 10
240.235294304021
 20
139.200807948276
 30
0.0
 40
6.350000000000024
100
AcDbArc
 50
182.959340296817
 51
270.0
  0
LINE
  5
1A1
330
170
100
AcDbEntity
  8
PROFILE
  6
AUSGEZOGEN
 62
    16
420
  8388608
370
    18
100
AcDbLine
 10
228.356562516167
 20
138.872974783931
 30
0.0
 11
228.294794109485
 21
139.460661916861
 31
0.0
  0
ARC
  5
1A2
330
170
100
AcDbEntity
  8
PROFILE
  6
AUSGEZOGEN
 62
    16
420
  8388608
370
    18
100
AcDbCircle
 10
224.67191035901
 20
139.079881490811
 30
0.0
 40
3.642839606999076
100
AcDbArc
 50
6.0
 51
134.999999999999
  0
ARC
  5
1A3
330
170
100
AcDbEntity
  8
PROFILE
  6
AUSGEZOGEN
 62
    16
420
  8388608
370
    18
100
AcDbCircle
 10
183.390055155515
 20
136.178114070573
 30
0.0
 40
12.1666938777027
100
AcDbArc
 50
59.137364240823
 51
135.0
  0
ARC
  5
1A4
330
170
100
AcDbEntity
  8
PROFILE
  6
AUSGEZOGEN
 62
    16
420
  8388608
370
    18
100
AcDbCircle
 10
209.467322729446
 20
143.787955270591
 30
0.0
 40
7.742748666787291
100
AcDbArc
 50
239.137364240823
 51
309.404037980451
  0
LINE
  5
1A5
330
170
100
AcDbEntity
  8
PROFILE
  6
AUSGEZOGEN
 62
    16
420
  8388608
370
    18
100
AcDbLine
 10
205.495435332277
 20
137.141582769651
 30
0.0
 11
189.631344929695
 21
146.621999452386
 31
0.0
  0
LINE
  5
1A6
330
170
100
AcDbEntity
  8
PROFILE
  6
AUSGEZOGEN
 62
    16
420
  8388608
370
    18
100
AcDbLine
 10
161.350106906085
 20
148.725807948276
 30
0.0
 11
154.279039094219
 21
141.654740136411
 31
0.0
  0
LINE
  5
1A7
330
170
100
AcDbEntity
  8
PROFILE
  6
AUSGEZOGEN
 62
    16
420
  8388608
370
    18
100
AcDbLine
 10
215.450058201852
 20
138.872974783931
 30
0.0
 11
208.378990389987
 21
131.801906972065
 31
0.0
  0
LINE
  5
1A8
330
170
100
AcDbEntity
  8
PROFILE
  6
AUSGEZOGEN
 62
    16
420
  8388608
370
    18
100
AcDbLine
 10
228.356562516167
 20
138.872974783931
 30
0.0
 11
221.285494704302
 21
131.801906972065
 31
0.0
  0
LINE
  5
1A9
330
170
100
AcDbEntity
  8
PROFILE
  6
AUSGEZOGEN
 62
    16
420
  8388608
370
    18
100
AcDbLine
 10
233.893762516167
 20
138.872974783931
 30
0.0
 11
226.822694704302
 21
131.801906972065
 31
0.0
  0
LINE
  5
1AA
330
170
100
AcDbEntity
  8
PROFILE
  6
AUSGEZOGEN
 62
    16
420
  8388608
370
    18
100
AcDbLine
 10
240.235294304021
 20
132.850807948276
 30
0.0
 11
233.164226492155
 21
125.779740136411
 31
0.0
  0
LINE
  5
1AB
330
170
100
AcDbEntity
  8
PROFILE
  6
AUSGEZOGEN
 62
    16
420
  8388608
370
    18
100
AcDbLine
 10
240.235294304021
 20
128.075607948276
 30
0.0
 11
233.164226492155
 21
121.004540136411
 31
0.0
  0
LINE
  5
1AC
330
170
100
AcDbEntity
  8
PROFILE
  6
AUSGEZOGEN
 62
    16
420
  8388608
370
    18
100
AcDbLine
 10
215.02496595826
 20
134.584690267829
 30
0.0
 11
222.096033770126
 21
141.655758079695
 31
0.0
  0
LINE
  5
1AD
330
170
100
AcDbEntity
  8
PROFILE
  6
AUSGEZOGEN
 62
    16
420
  8388608
370
    18
100
AcDbLine
 10
167.715835598105
 20
137.710198004252
 30
0.0
 11
174.786903409971
 21
144.781265816118
 31
0.0
  0
LINE
  5
1AE
330
170
100
AcDbEntity
  8
PROFILE
  6
AUSGEZOGEN
 62
    16
420
  8388608
370
    18
100
AcDbLine
 10
139.795854394247
 20
147.56524785805
 30
0.0
 11
132.724786582382
 21
140.494180046184
 31
0.0
  0
WIPEOUT
  5
1AF
330
170
100
AcDbEntity
  8
PROFILE
  6
AUSGEZOGEN
 62
    16
420
  8388608
370
    18
 92
      308
310
34010000070000000C0000000E000000120000000C00000016000000000000C20C00000014000000010000006C00000007000000040000000440C13947536040B207664E18595C400000000000000000E6025464C0F76440B207664E18595C400000000000000000E6025464C0F76440B20766BE76E65D4000000000000000
310
000440C13947536040B20766BE76E65D4000000000000000000C0000000E000000100000000C00000016000000000080C28400000006000000050000000440C13947536040B207664E18595C400000000000000000E6025464C0F76440B207664E18595C400000000000000000E6025464C0F76440B20766BE76E65D400000
310
0000000000000440C13947536040B20766BE76E65D4000000000000000000440C13947536040B207664E18595C400000000000000000
100
AcDbWipeout
 90
        0
 10
130.602444531862
 20
113.392108535422
 30
0.0
 11
37.1397908083373
 21
0.0
 31
0.0
 12
0.0
 22
37.1397908083373
 32
0.0
 13
1.0
 23
1.0
340
0
 70
     7
280
     1
281
    50
282
    50
283
     0
360
0
 71
     2
 91
        5
 14
-0.5
 24
0.5
 14
0.5
 24
0.5
 14
0.5
 24
0.332823802385
 14
-0.5
 24
0.332823802385
 14
-0.5
 24
0.5
  0
TEXT
  5
1B0
330
170
100
AcDbEntity
  8
PROFILE
  6
AUSGEZOGEN
 62
    16
420
  8388608
370
    18
100
AcDbText
 10
130.602444531862
 20
114.556275224341
 30
0.0
 40
3.88055562973
  1
13/16" X 4"
 41
1.37372476951
  7
Arial
 72
     5
 11
167.742235340199
 21
114.556275224341
 31
0.0
100
AcDbText
  0
WIPEOUT
  5
1B1
330
170
100
AcDbEntity
  8
PROFILE
  6
AUSGEZOGEN
 62
    16
420
  8388608
370
    18
 92
      308
310
34010000070000000C0000000E000000120000000C00000016000000000000C20C00000014000000010000006C00000007000000040000005C3B8C078B166640BDAF931BD8675C400000000000000000C0EC85AC4A466D40BDAF931BD8675C400000000000000000C0EC85AC4A466D40BDAF938B36F55D4000000000000000
310
005C3B8C078B166640BDAF938B36F55D4000000000000000000C0000000E000000100000000C00000016000000000080C28400000006000000050000005C3B8C078B166640BDAF931BD8675C400000000000000000C0EC85AC4A466D40BDAF931BD8675C400000000000000000C0EC85AC4A466D40BDAF938B36F55D400000
310
0000000000005C3B8C078B166640BDAF938B36F55D4000000000000000005C3B8C078B166640BDAF931BD8675C400000000000000000
100
AcDbWipeout
 90
        0
 10
176.7044713725
 20
113.622565168595
 30
0.0
 11
57.4921440960708
 21
0.0
 31
0.0
 12
0.0
 22
57.4921440960708
 32
0.0
 13
1.0
 23
1.0
340
0
 70
     7
280
     1
281
    50
282
    50
283
     0
360
0
 71
     2
 91
        5
 14
-0.5
 24
0.5
 14
0.5
 24
0.5
 14
0.5
 24
0.392004566794
 14
-0.5
 24
0.392004566794
 14
-0.5
 24
0.5
  0
TEXT
  5
1B2
330
170
100
AcDbEntity
  8
PROFILE
  6
AUSGEZOGEN
 62
    16
420
  8388608
370
    18
100
AcDbText
 10
176.7044713725
 20
114.786731857514
 30
0.0
 40
3.88055562973
  1
CASE 4.000" - 103
 41
1.261318005086
  7
Arial
 72
     5
 11
234.196615468571
 21
114.786731857514
 31
0.0
100
AcDbText
  0
LINE
  5
1B3
330
170
100
AcDbEntity
  8
PROFILE
  6
AUSGEZOGEN
 62
     7
420
 16777215
370
    18
100
AcDbLine
 10
253.263247580333
 20
76.968115561191
 30
0.0
 11
253.263247580333
 21
1.098315561191
 31
0.0
  0
LINE
  5
1B4
330
170
100
AcDbEntity
  8
PROFILE
  6
AUSGEZOGEN
 62
     7
420
 16777215
370
    18
100
AcDbLine
 10
111.683647580333
 20
69.017915561191
 30
0.0
 11
111.683647580333
 21
1.098315561191
 31
0.0
  0
LINE
  5
1B5
330
170
100
AcDbEntity
  8
PROFILE
  6
AUSGEZOGEN
 62
     7
420
 16777215
370
    18
100
AcDbLine
 10
253.263247580333
 20
1.098315561191
 30
0.0
 11
111.683647580333
 21
1.098315561191
 31
0.0
  0
LINE
  5
1B6
330
170
100
AcDbEntity
  8
PROFILE
  6
AUSGEZOGEN
 62
     7
420
 16777215
370
    18
100
AcDbLine
 10
253.263247580333
 20
76.968115561191
 30
0.0
 11
233.273447580333
 21
76.968115561191
 31
0.0
  0
LINE
  5
1B7
330
170
100
AcDbEntity
  8
PROFILE
  6
AUSGEZOGEN
 62
     7
420
 16777215
370
    18
100
AcDbLine
 10
111.683647580333
 20
69.017915561191
 30
0.0
 11
131.07762780356
 21
69.017915561191
 31
0.0
  0
LINE
  5
1B8
330
170
100
AcDbEntity
  8
PROFILE
  6
AUSGEZOGEN
 62
     7
420
 16777215
370
    18
100
AcDbLine
 10
131.712009384751
 20
64.504056065947
 30
0.0
 11
131.07762780356
 21
69.017915561191
 31
0.0
  0
INSERT
  5
1C3
330
170
100
AcDbEntity
  8
0
100
AcDbBlockReference
  2
DimBlk_nNn01
 10
0.0
 20
0.0
 30
0.0
  0
INSERT
  5
1CE
330
170
100
AcDbEntity
  8
0
100
AcDbBlockReference
  2
DimBlk_nNn02
 10
0.0
 20
0.0
 30
0.0
  0
INSERT
  5
1D9
330
170
100
AcDbEntity
  8
0
100
AcDbBlockReference
  2
DimBlk_nNn03
 10
0.0
 20
0.0
 30
0.0
  0
INSERT
  5
1E3
330
170
100
AcDbEntity
  8
0
100
AcDbBlockReference
  2
DimBlk_nNn04
 10
0.0
 20
0.0
 30
0.0
  0
INSERT
  5
1EC
330
170
100
AcDbEntity
  8
0
100
AcDbBlockReference
  2
DimBlk_nNn05
 10
0.0
 20
0.0
 30
0.0
  0
INSERT
  5
1F5
330
170
100
AcDbEntity
  8
0
100
AcDbBlockReference
  2
DimBlk_nNn06
 10
0.0
 20
0.0
 30
0.0
  0
INSERT
  5
1FE
330
170
100
AcDbEntity
  8
0
100
AcDbBlockReference
  2
DimBlk_nNn07
 10
0.0
 20
0.0
 30
0.0
  0
INSERT
  5
208
330
170
100
AcDbEntity
  8
0
100
AcDbBlockReference
  2
DimBlk_nNn08
 10
0.0
 20
0.0
 30
0.0
  0
INSERT
  5
211
330
170
100
AcDbEntity
  8
0
100
AcDbBlockReference
  2
DimBlk_nNn09
 10
0.0
 20
0.0
 30
0.0
  0
WIPEOUT
  5
212
330
170
100
AcDbEntity
  8
PROFILE
  6
AUSGEZOGEN
 62
     5
420
      255
370
    18
 92
      308
310
34010000070000000C0000000E000000120000000C00000016000000000000C20C00000014000000010000006C00000007000000040000002AEEF727D0EB624016E93F7DBC75434000000000000000000A694C42F6F16A4016E93F7DBC75434000000000000000000A694C42F6F16A4016E93F5D7990464000000000000000
310
002AEEF727D0EB624016E93F5D7990464000000000000000000C0000000E000000050000000C00000016000000FF0000C28400000006000000050000002AEEF727D0EB624016E93F7DBC75434000000000000000000A694C42F6F16A4016E93F7DBC75434000000000000000000A694C42F6F16A4016E93F5D799046400000
310
0000000000002AEEF727D0EB624016E93F5D7990464000000000000000002AEEF727D0EB624016E93F7DBC7543400000000000000000
100
AcDbWipeout
 90
        0
 10
151.369159683455
 20
38.919814735609
 30
0.0
 11
64.19215122699737
 21
0.0
 31
0.0
 12
0.0
 22
64.19215122699737
 32
0.0
 13
1.0
 23
1.0
340
0
 70
     7
280
     1
281
    50
282
    50
283
     0
360
0
 71
     2
 91
        5
 14
-0.5
 24
0.5
 14
0.5
 24
0.5
 14
0.5
 24
0.403276508282
 14
-0.5
 24
0.403276508282
 14
-0.5
 24
0.5
  0
TEXT
  5
213
330
170
100
AcDbEntity
  8
PROFILE
  6
AUSGEZOGEN
 62
     5
420
      255
370
    18
100
AcDbText
 10
151.369159683455
 20
40.083981424528
 30
0.0
 40
3.88055562973
  1
CASE 4.000" - 103
 41
1.408309211647
  7
Arial
 72
     5
 11
215.561310910453
 21
40.083981424528
 31
0.0
100
AcDbText
  0
WIPEOUT
  5
214
330
170
100
AcDbEntity
  8
PROFILE
  6
AUSGEZOGEN
 62
     5
420
      255
370
    18
 92
      308
310
34010000070000000C0000000E000000120000000C00000016000000000000C20C00000014000000010000006C00000007000000040000007B53D40934A76E40C8D487AFD4C900400000000000000000B85DEBB4281F6F40C8D487AFD4C900400000000000000000B85DEBB4281F6F4032F5E1AB689D204000000000000000
310
007B53D40934A76E4032F5E1AB689D204000000000000000000C0000000E000000050000000C00000016000000FF0000C28400000006000000050000007B53D40934A76E40C8D487AFD4C900400000000000000000B85DEBB4281F6F40C8D487AFD4C900400000000000000000B85DEBB4281F6F4032F5E1AB689D20400000
310
0000000000007B53D40934A76E4032F5E1AB689D204000000000000000007B53D40934A76E40C8D487AFD4C900400000000000000000
100
AcDbWipeout
 90
        0
 10
245.225102343273
 20
2.098550196965
 30
0.0
 11
6.208889007568359
 21
0.0
 31
0.0
 12
0.0
 22
6.208889007568359
 32
0.0
 13
1.0
 23
1.0
340
0
 70
     7
280
     1
281
    50
282
    50
283
     0
360
0
 71
     2
 91
        5
 14
-0.5
 24
0.5
 14
0.10375
 24
0.5
 14
0.10375
 24
-0.5
 14
-0.5
 24
-0.5
 14
-0.5
 24
0.5
  0
TEXT
  5
215
330
170
100
AcDbEntity
  8
PROFILE
  6
AUSGEZOGEN
 62
     5
420
      255
370
    18
100
AcDbText
 10
245.225102343273
 20
3.262716885884
 30
0.0
 40
3.88055562973
  1
T
 41
1.132473622509
  7
Arial
 72
     5
 11
248.973719081592
 21
3.262716885884
 31
0.0
100
AcDbText
  0
WIPEOUT
  5
216
330
170
100
AcDbEntity
  8
PROFILE
  6
AUSGEZOGEN
 62
     3
420
    65280
370
    18
 92
      308
310
34010000070000000C0000000E000000120000000C00000016000000000000C20C00000014000000010000006C0000000700000004000000D7DD091BDFF75D40287996450A8E1AC0000000000000000028F9DB8207906E40287996450A8E1AC0000000000000000028F9DB8207906E40809267593482DBBF00000000000000
310
00D7DD091BDFF75D40809267593482DBBF00000000000000000C0000000E000000030000000C0000001600000000FF00C2840000000600000005000000D7DD091BDFF75D40287996450A8E1AC0000000000000000028F9DB8207906E40287996450A8E1AC0000000000000000028F9DB8207906E40809267593482DBBF0000
310
000000000000D7DD091BDFF75D40809267593482DBBF0000000000000000D7DD091BDFF75D40287996450A8E1AC00000000000000000
100
AcDbWipeout
 90
        0
 10
119.872992286334
 20
-6.638711058911
 30
0.0
 11
124.6279246044159
 21
0.0
 31
0.0
 12
0.0
 22
124.6279246044159
 32
0.0
 13
1.0
 23
1.0
340
0
 70
     7
280
     1
281
    50
282
    50
283
     0
360
0
 71
     2
 91
        5
 14
-0.5
 24
0.5
 14
0.5
 24
0.5
 14
0.5
 24
0.450180595342
 14
-0.5
 24
0.450180595342
 14
-0.5
 24
0.5
  0
TEXT
  5
217
330
170
100
AcDbEntity
  8
PROFILE
  6
AUSGEZOGEN
 62
     3
420
    65280
370
    18
100
AcDbText
 10
119.872992286334
 20
-5.474544369992
 30
0.0
 40
3.88055562973
  1
Cut steel size @ 4.750"l  x  2.000"w
 41
1.452226995252
  7
Arial
 72
     5
 11
244.50091689075
 21
-5.474544369992
 31
0.0
100
AcDbText
  0
LINE
  5
218
330
170
100
AcDbEntity
  8
PROFILE
  6
AUSGEZOGEN
 62
     5
420
      255
370
    18
100
AcDbLine
 10
78.362838741356
 20
-22.445160952395
 30
0.0
 11
279.530838741356
 21
-22.445160952395
 31
0.0
  0
LINE
  5
219
330
170
100
AcDbEntity
  8
PROFILE
  6
AUSGEZOGEN
 62
     5
420
      255
370
    18
100
AcDbLine
 10
78.362838741356
 20
-33.641221934817
 30
0.0
 11
279.530838741356
 21
-33.641221934817
 31
0.0
  0
LINE
  5
21A
330
170
100
AcDbEntity
  8
PROFILE
  6
AUSGEZOGEN
 62
     5
420
      255
370
    18
100
AcDbLine
 10
279.530838741356
 20
-45.689265866319
 30
0.0
 11
78.362838741356
 21
-45.689265866319
 31
0.0
  0
TEXT
  5
21B
330
170
100
AcDbEntity
  8
PROFILE
  6
AUSGEZOGEN
 62
     7
420
 16777215
370
    18
100
AcDbText
 10
80.86182654373
 20
-20.804575488885
 30
0.0
 40
3.5
  1
KNIFE GRIND NEEDED ?
 41
1.427091498526
  7
Lucida Calligraphy
 72
     5
 11
162.607054670788
 21
-20.804575488885
 31
0.0
100
AcDbText
  0
TEXT
  5
21C
330
170
100
AcDbEntity
  8
PROFILE
  6
AUSGEZOGEN
 62
     5
420
      255
370
    18
100
AcDbText
 10
78.946031974789
 20
-43.712997642117
 30
0.0
 40
3.5
  1
Circle one
 41
0.902435142448
  7
Lucida Calligraphy
 72
     5
 11
98.791031974789
 21
-43.712997642117
 31
0.0
100
AcDbText
  0
TEXT
  5
21D
330
170
100
AcDbEntity
  8
PROFILE
  6
AUSGEZOGEN
 62
     5
420
      255
370
    18
100
AcDbText
 10
79.407953776792
 20
-38.950037111575
 30
0.0
 40
3.5
  1
Ship via
 41
1.088691690241
  7
Lucida Calligraphy
 72
     5
 11
98.32669362396
 21
-38.950037111575
 31
0.0
100
AcDbText
  0
TEXT
  5
21E
330
170
100
AcDbEntity
  8
PROFILE
  6
AUSGEZOGEN
 62
     5
420
      255
370
    18
100
AcDbText
 10
205.983574080552
 20
-41.563663161637
 30
0.0
 40
3.880555555556
  1
UPS -
 41
0.889874060598
  7
Lucida Calligraphy
 72
     5
 11
218.839859011844
 21
-41.563663161637
 31
0.0
100
AcDbText
  0
TEXT
  5
21F
330
170
100
AcDbEntity
  8
PROFILE
  6
AUSGEZOGEN
 62
     7
420
 16777215
370
    18
100
AcDbText
 10
186.460826338493
 20
-41.51713278804
 30
0.0
 40
3.55825947599
  1
2 Day
 41
0.931746313857
  7
Lucida Calligraphy
 72
     5
 11
198.54875705722
 21
-41.51713278804
 31
0.0
100
AcDbText
  0
TEXT
  5
220
330
170
100
AcDbEntity
  8
PROFILE
  6
AUSGEZOGEN
 62
     7
420
 16777215
370
    18
100
AcDbText
 10
159.682628584324
 20
-39.195961966617
 30
0.0
 40
2.469444444444
  1
Standard
 41
1.361935045736
  7
Lucida Calligraphy
 72
     5
 11
178.731923273356
 21
-39.195961966617
 31
0.0
100
AcDbText
  0
TEXT
  5
221
330
170
100
AcDbEntity
  8
PROFILE
  6
AUSGEZOGEN
 62
     7
420
 16777215
370
    18
100
AcDbText
 10
159.682628584324
 20
-43.147073136605
 30
0.0
 40
2.469444444444
  1
Overnight
 41
1.39695919784
  7
Lucida Calligraphy
 72
     5
 11
180.556842735295
 21
-43.147073136605
 31
0.0
100
AcDbText
  0
TEXT
  5
222
330
170
100
AcDbEntity
  8
PROFILE
  6
AUSGEZOGEN
 62
     7
420
 16777215
370
    18
100
AcDbText
 10
132.759917664502
 20
-39.131348363431
 30
0.0
 40
2.469444444444
  1
Priority
 41
1.595671214319
  7
Lucida Calligraphy
 72
     5
 11
149.87316787141
 21
-39.131348363431
 31
0.0
100
AcDbText
  0
TEXT
  5
223
330
170
100
AcDbEntity
  8
PROFILE
  6
AUSGEZOGEN
 62
     7
420
 16777215
370
    18
100
AcDbText
 10
132.759917664502
 20
-43.082459533419
 30
0.0
 40
2.469444444444
  1
Overnight
 41
1.39695919784
  7
Lucida Calligraphy
 72
     5
 11
153.634131815474
 21
-43.082459533419
 31
0.0
100
AcDbText
  0
TEXT
  5
224
330
170
100
AcDbEntity
  8
PROFILE
  6
AUSGEZOGEN
 62
     5
420
      255
370
    18
100
AcDbText
 10
106.891375184512
 20
-41.60651834612
 30
0.0
 40
3.880555555556
  1
FEDEX -
 41
0.870751925974
  7
Lucida Calligraphy
 72
     5
 11
125.499534924249
 21
-41.60651834612
 31
0.0
100
AcDbText
  0
TEXT
  5
225
330
170
100
AcDbEntity
  8
PROFILE
  6
AUSGEZOGEN
 62
     7
420
 16777215
370
    18
100
AcDbText
 10
224.487800250029
 20
-41.283831029978
 30
0.0
 40
3.175
  1
Red  Blue  Ground
 41
1.345588251381
  7
Lucida Calligraphy
 72
     5
 11
273.874925840473
 21
-41.283831029978
 31
0.0
100
AcDbText
  0
LINE
  5
226
330
170
100
AcDbEntity
  8
PROFILE
  6
AUSGEZOGEN
 62
     5
420
      255
370
    18
100
AcDbLine
 10
202.55123619738
 20
-45.689265866319
 30
0.0
 11
202.55123619738
 21
-33.802160083592
 31
0.0
  0
TEXT
  5
227
330
170
100
AcDbEntity
  8
PROFILE
  6
AUSGEZOGEN
 62
     1
420
 16711680
370
    18
100
AcDbText
 10
127.101466239644
 20
-31.413709748937
 30
0.0
 40
3.5
  1
FULL
 41
1.318195155484
  7
Lucida Calligraphy
 72
     5
 11
142.84796646948
 21
-31.413709748937
 31
0.0
100
AcDbText
  0
LINE
  5
228
330
170
100
AcDbEntity
  8
PROFILE
  6
AUSGEZOGEN
 62
     5
420
      255
370
    18
100
AcDbLine
 10
78.362838741356
 20
-45.689265866319
 30
0.0
 11
78.362838741356
 21
216.260934133681
 31
0.0
  0
LINE
  5
229
330
170
100
AcDbEntity
  8
PROFILE
  6
AUSGEZOGEN
 62
     5
420
      255
370
    18
100
AcDbLine
 10
279.530838741356
 20
-45.689265866319
 30
0.0
 11
279.530838741356
 21
216.260934133681
 31
0.0
  0
LINE
  5
22A
330
170
100
AcDbEntity
  8
PROFILE
  6
AUSGEZOGEN
 62
     5
420
      255
370
    18
100
AcDbLine
 10
279.530838741356
 20
216.260934133681
 30
0.0
 11
78.362838741356
 21
216.260934133681
 31
0.0
  0
WIPEOUT
  5
22B
330
170
100
AcDbEntity
  8
PROFILE
  6
AUSGEZOGEN
 62
     5
420
      255
370
    18
 92
      308
310
34010000070000000C0000000E000000120000000C00000016000000000000C20C00000014000000010000006C00000007000000040000002E9EB2E9DAFD534048C4E7EEF44D2DC00000000000000000D179F81D3603694048C4E7EEF44D2DC00000000000000000D179F81D36036940FCD71F7E7F1020C000000000000000
310
002E9EB2E9DAFD5340FCD71F7E7F1020C000000000000000000C0000000E000000050000000C00000016000000FF0000C28400000006000000050000002E9EB2E9DAFD534048C4E7EEF44D2DC00000000000000000D179F81D3603694048C4E7EEF44D2DC00000000000000000D179F81D36036940FCD71F7E7F1020C00000
310
0000000000002E9EB2E9DAFD5340FCD71F7E7F1020C000000000000000002E9EB2E9DAFD534048C4E7EEF44D2DC00000000000000000
100
AcDbWipeout
 90
        0
 10
79.966486381942
 20
-14.6522593172
 30
0.0
 11
120.1338697060326
 21
0.0
 31
0.0
 12
0.0
 22
120.1338697060326
 32
0.0
 13
1.0
 23
1.0
340
0
 70
     7
280
     1
281
    50
282
    50
283
     0
360
0
 71
     2
 91
        5
 14
-0.5
 24
0.5
 14
0.5
 24
0.5
 14
0.5
 24
0.444894502762
 14
-0.5
 24
0.444894502762
 14
-0.5
 24
0.5
  0
TEXT
  5
22C
330
170
100
AcDbEntity
  8
PROFILE
  6
AUSGEZOGEN
 62
     5
420
      255
370
    18
100
AcDbText
 10
79.966486381942
 20
-13.411002449957
 30
0.0
 40
4.137522890809
  1
PLEASE SIGN OR MAKE CORRECT CHANGES.
 41
0.935804806331
  7
Lucida Calligraphy
 72
     5
 11
200.100356087975
 21
-13.411002449957
 31
0.0
100
AcDbText
  0
WIPEOUT
  5
22D
330
170
100
AcDbEntity
  8
PROFILE
  6
AUSGEZOGEN
 62
     1
420
 16711680
370
    18
 92
      308
310
34010000070000000C0000000E000000120000000C00000016000000000000C20C00000014000000010000006C00000007000000040000003E4509337E806940F8DCC5E3AD632DC00000000000000000D3D5C7644B737140F8DCC5E3AD632DC00000000000000000D3D5C7644B737140C4A992B07A3022C000000000000000
310
003E4509337E806940C4A992B07A3022C000000000000000000C0000000E000000010000000C000000160000000000FFC28400000006000000050000003E4509337E806940F8DCC5E3AD632DC00000000000000000D3D5C7644B737140F8DCC5E3AD632DC00000000000000000D3D5C7644B737140C4A992B07A3022C00000
310
0000000000003E4509337E806940C4A992B07A3022C000000000000000003E4509337E806940F8DCC5E3AD632DC00000000000000000
100
AcDbWipeout
 90
        0
 10
204.015405195338
 20
-14.694686048415
 30
0.0
 11
75.19050146341326
 21
0.0
 31
0.0
 12
0.0
 22
75.19050146341326
 32
0.0
 13
1.0
 23
1.0
340
0
 70
     7
280
     1
281
    50
282
    50
283
     0
360
0
 71
     2
 91
        5
 14
-0.5
 24
0.5
 14
0.5
 24
0.5
 14
0.5
 24
0.425522507617
 14
-0.5
 24
0.425522507617
 14
-0.5
 24
0.5
  0
TEXT
  5
22E
330
170
100
AcDbEntity
  8
PROFILE
  6
AUSGEZOGEN
 62
     1
420
 16711680
370
    18
100
AcDbText
 10
204.015405195338
 20
-13.644686048415
 30
0.0
 40
3.5
  1
X------------------
 41
2.309751684563
  7
Brush Script MT
 72
     5
 11
279.205906658751
 21
-13.644686048415
 31
0.0
100
AcDbText
  0
LINE
  5
22F
330
170
100
AcDbEntity
  8
PROFILE
  6
AUSGEZOGEN
 62
     7
420
 16777215
370
    18
100
AcDbLine
 10
122.066604167808
 20
194.732294253745
 30
0.0
 11
129.294816011076
 21
194.732294253745
 31
0.0
  0
LINE
  5
230
330
170
100
AcDbEntity
  8
PROFILE
  6
AUSGEZOGEN
 62
     7
420
 16777215
370
    18
100
AcDbLine
 10
122.066604167808
 20
193.050554390185
 30
0.0
 11
129.294816011076
 21
193.050554390185
 31
0.0
  0
LINE
  5
231
330
170
100
AcDbEntity
  8
PROFILE
  6
AUSGEZOGEN
 62
     7
420
 16777215
370
    18
100
AcDbLine
 10
118.011753621584
 20
193.050554390185
 30
0.0
 11
121.302646818519
 21
193.050554390185
 31
0.0
  0
LINE
  5
232
330
170
100
AcDbEntity
  8
PROFILE
  6
AUSGEZOGEN
 62
     7
420
 16777215
370
    18
100
AcDbLine
 10
114.015669025306
 20
193.050554390185
 30
0.0
 11
117.130264372405
 21
193.050554390185
 31
0.0
  0
LINE
  5
233
330
170
100
AcDbEntity
  8
PROFILE
  6
AUSGEZOGEN
 62
     7
420
 16777215
370
    18
100
AcDbLine
 10
129.294816011076
 20
195.417447531492
 30
0.0
 11
129.294816011076
 21
200.930441696231
 31
0.0
  0
LINE
  5
234
330
170
100
AcDbEntity
  8
PROFILE
  6
AUSGEZOGEN
 62
     7
420
 16777215
370
    18
100
AcDbLine
 10
129.294816011076
 20
193.050554390185
 30
0.0
 11
129.294816011076
 21
194.732294253745
 31
0.0
  0
LINE
  5
235
330
170
100
AcDbEntity
  8
PROFILE
  6
AUSGEZOGEN
 62
     7
420
 16777215
370
    18
100
AcDbLine
 10
114.015669025306
 20
193.050554390185
 30
0.0
 11
114.015669025306
 21
204.013006834134
 31
0.0
  0
LINE
  5
236
330
170
100
AcDbEntity
  8
PROFILE
  6
AUSGEZOGEN
 62
     7
420
 16777215
370
    18
100
AcDbLine
 10
117.130264372405
 20
193.050554390185
 30
0.0
 11
117.130264372405
 21
200.342260655392
 31
0.0
  0
LINE
  5
237
330
170
100
AcDbEntity
  8
PROFILE
  6
AUSGEZOGEN
 62
     7
420
 16777215
370
    18
100
AcDbLine
 10
118.011753621584
 20
193.050554390185
 30
0.0
 11
118.011753621584
 21
200.342260655392
 31
0.0
  0
LINE
  5
238
330
170
100
AcDbEntity
  8
PROFILE
  6
AUSGEZOGEN
 62
     7
420
 16777215
370
    18
100
AcDbLine
 10
122.066604167808
 20
195.417447531492
 30
0.0
 11
122.066604167808
 21
200.345930020492
 31
0.0
  0
LINE
  5
239
330
170
100
AcDbEntity
  8
PROFILE
  6
AUSGEZOGEN
 62
     7
420
 16777215
370
    18
100
AcDbLine
 10
122.066604167808
 20
193.050554390185
 30
0.0
 11
122.066604167808
 21
194.732294253745
 31
0.0
  0
LINE
  5
23A
330
170
100
AcDbEntity
  8
PROFILE
  6
AUSGEZOGEN
 62
     7
420
 16777215
370
    18
100
AcDbLine
 10
126.180220663977
 20
195.417447531492
 30
0.0
 11
126.180220663977
 21
204.013006834134
 31
0.0
  0
LINE
  5
23B
330
170
100
AcDbEntity
  8
PROFILE
  6
AUSGEZOGEN
 62
     7
420
 16777215
370
    18
100
AcDbLine
 10
126.180220663977
 20
195.417447531492
 30
0.0
 11
129.294816011076
 21
195.417447531492
 31
0.0
  0
LINE
  5
23C
330
170
100
AcDbEntity
  8
PROFILE
  6
AUSGEZOGEN
 62
     7
420
 16777215
370
    18
100
AcDbLine
 10
122.066604167808
 20
195.417447531492
 30
0.0
 11
125.181199514907
 21
195.417447531492
 31
0.0
  0
LINE
  5
23D
330
170
100
AcDbEntity
  8
PROFILE
  6
AUSGEZOGEN
 62
     7
420
 16777215
370
    18
100
AcDbLine
 10
126.180220663977
 20
204.013006834134
 30
0.0
 11
130.394755922262
 21
204.013006834134
 31
0.0
  0
LINE
  5
23E
330
170
100
AcDbEntity
  8
PROFILE
  6
AUSGEZOGEN
 62
     7
420
 16777215
370
    18
100
AcDbLine
 10
114.015669025306
 20
204.013006834134
 30
0.0
 11
117.269014422703
 21
204.013006834134
 31
0.0
  0
ARC
  5
23F
330
170
100
AcDbEntity
  8
PROFILE
  6
AUSGEZOGEN
 62
     7
420
 16777215
370
    18
100
AcDbCircle
 10
117.269014422703
 20
201.100953715252
 30
0.0
 40
2.912053118881551
100
AcDbArc
 50
32.066426975729
 51
90.0
  0
LINE
  5
240
330
170
100
AcDbEntity
  8
PROFILE
  6
AUSGEZOGEN
 62
     7
420
 16777215
370
    18
100
AcDbLine
 10
125.181199514907
 20
195.417447531492
 30
0.0
 11
125.181199514907
 21
201.059308533846
 31
0.0
  0
ARC
  5
241
330
170
100
AcDbEntity
  8
PROFILE
  6
AUSGEZOGEN
 62
     7
420
 16777215
370
    18
100
AcDbCircle
 10
122.22750121462
 20
201.059308533846
 30
0.0
 40
2.953698300287107
100
AcDbArc
 50
0.0
 51
147.485292992988
  0
ARC
  5
242
330
170
100
AcDbEntity
  8
PROFILE
  6
AUSGEZOGEN
 62
     7
420
 16777215
370
    18
100
AcDbCircle
 10
117.571008996995
 20
200.342260655392
 30
0.0
 40
0.4407446245895066
100
AcDbArc
 50
0.0
 51
180.0
  0
LINE
  5
243
330
170
100
AcDbEntity
  8
PROFILE
  6
AUSGEZOGEN
 62
     7
420
 16777215
370
    18
100
AcDbLine
 10
134.642517456095
 20
193.050554390185
 30
0.0
 11
132.814685125912
 21
197.571012340152
 31
0.0
  0
ARC
  5
244
330
170
100
AcDbEntity
  8
PROFILE
  6
AUSGEZOGEN
 62
     7
420
 16777215
370
    18
100
AcDbCircle
 10
130.394755922262
 20
200.337487516676
 30
0.0
 40
3.675519317457272
100
AcDbArc
 50
311.177284003839
 51
90.0
  0
LINE
  5
245
330
170
100
AcDbEntity
  8
PROFILE
  6
AUSGEZOGEN
 62
     7
420
 16777215
370
    18
100
AcDbLine
 10
129.294816011076
 20
200.930441696231
 30
0.0
 11
129.964176443025
 21
200.930441696231
 31
0.0
  0
ARC
  5
246
330
170
100
AcDbEntity
  8
PROFILE
  6
AUSGEZOGEN
 62
     7
420
 16777215
370
    18
100
AcDbCircle
 10
129.964176443025
 20
200.151276895821
 30
0.0
 40
0.7791648004099827
100
AcDbArc
 50
269.396898994247
 51
90.0
  0
LINE
  5
247
330
170
100
AcDbEntity
  8
PROFILE
  6
AUSGEZOGEN
 62
     7
420
 16777215
370
    18
100
AcDbLine
 10
131.016671583321
 20
193.050554390185
 30
0.0
 11
134.642517456095
 21
193.050554390185
 31
0.0
  0
LINE
  5
248
330
170
100
AcDbEntity
  8
PROFILE
  6
AUSGEZOGEN
 62
     7
420
 16777215
370
    18
100
AcDbLine
 10
131.016671583321
 20
193.050554390185
 30
0.0
 11
129.955975029219
 21
195.660405771012
 31
0.0
  0
LINE
  5
249
330
170
100
AcDbEntity
  8
PROFILE
  6
AUSGEZOGEN
 62
     7
420
 16777215
370
    18
100
AcDbLine
 10
129.964176443025
 20
199.372112095411
 30
0.0
 11
129.955975029219
 21
199.372112095411
 31
0.0
  0
LINE
  5
24A
330
170
100
AcDbEntity
  8
PROFILE
  6
AUSGEZOGEN
 62
     7
420
 16777215
370
    18
100
AcDbLine
 10
129.955975029219
 20
195.660405771012
 30
0.0
 11
129.955975029219
 21
199.372155260253
 31
0.0
  0
LINE
  5
24B
330
170
100
AcDbEntity
  8
PROFILE
  6
AUSGEZOGEN
 62
     7
420
 16777215
370
    18
100
AcDbLine
 10
121.192453648829
 20
193.050554390185
 30
0.0
 11
121.192453648829
 21
200.345930020492
 31
0.0
  0
ARC
  5
24C
330
170
100
AcDbEntity
  8
PROFILE
  6
AUSGEZOGEN
 62
     7
420
 16777215
370
    18
100
AcDbCircle
 10
121.629528908318
 20
200.345930020492
 30
0.0
 40
0.437075259489488
100
AcDbArc
 50
0.0
 51
180.0
  0
LINE
  5
24D
330
170
100
AcDbEntity
  8
PROFILE
  6
AUSGEZOGEN
 62
     7
420
 16777215
370
    18
100
AcDbLine
 10
132.750252813744
 20
210.583038983901
 30
0.0
 11
136.964788072029
 21
210.583038983901
 31
0.0
  0
LINE
  5
24E
330
170
100
AcDbEntity
  8
PROFILE
  6
AUSGEZOGEN
 62
     7
420
 16777215
370
    18
100
AcDbLine
 10
120.585701175074
 20
210.583038983901
 30
0.0
 11
123.83904657247
 21
210.583038983901
 31
0.0
  0
ARC
  5
24F
330
170
100
AcDbEntity
  8
PROFILE
  6
AUSGEZOGEN
 62
     7
420
 16777215
370
    18
100
AcDbCircle
 10
123.83904657247
 20
207.67098586502
 30
0.0
 40
2.912053118881559
100
AcDbArc
 50
33.472713849325
 51
90.0
  0
ARC
  5
250
330
170
100
AcDbEntity
  8
PROFILE
  6
AUSGEZOGEN
 62
     7
420
 16777215
370
    18
100
AcDbCircle
 10
128.797533364387
 20
207.629340683614
 30
0.0
 40
2.953698300287107
100
AcDbArc
 50
31.162869112745
 51
135.0
  0
LINE
  5
251
330
170
100
AcDbEntity
  8
PROFILE
  6
AUSGEZOGEN
 62
     7
420
 16777215
370
    18
100
AcDbLine
 10
141.212549605863
 20
199.620586539953
 30
0.0
 11
139.384717275679
 21
204.14104448992
 31
0.0
  0
ARC
  5
252
330
170
100
AcDbEntity
  8
PROFILE
  6
AUSGEZOGEN
 62
     7
420
 16777215
370
    18
100
AcDbCircle
 10
136.964788072029
 20
206.907519666444
 30
0.0
 40
3.675519317457272
100
AcDbArc
 50
311.177284003839
 51
90.0
  0
LINE
  5
253
330
170
100
AcDbEntity
  8
PROFILE
  6
AUSGEZOGEN
 62
     7
420
 16777215
370
    18
100
AcDbLine
 10
120.585701175074
 20
210.583038983901
 30
0.0
 11
114.015669025306
 21
204.013006834134
 31
0.0
  0
LINE
  5
254
330
170
100
AcDbEntity
  8
PROFILE
  6
AUSGEZOGEN
 62
     7
420
 16777215
370
    18
100
AcDbLine
 10
141.212549605863
 20
199.620586539953
 30
0.0
 11
134.642517456095
 21
193.050554390185
 31
0.0
  0
LINE
  5
255
330
170
100
AcDbEntity
  8
PROFILE
  6
AUSGEZOGEN
 62
     7
420
 16777215
370
    18
100
AcDbLine
 10
139.384717275679
 20
204.14104448992
 30
0.0
 11
132.814685125912
 21
197.571012340152
 31
0.0
  0
LINE
  5
256
330
170
100
AcDbEntity
  8
PROFILE
  6
AUSGEZOGEN
 62
     7
420
 16777215
370
    18
100
AcDbLine
 10
132.750252813744
 20
210.583038983901
 30
0.0
 11
126.180220663977
 21
204.013006834134
 31
0.0
  0
LINE
  5
257
330
170
100
AcDbEntity
  8
PROFILE
  6
AUSGEZOGEN
 62
     7
420
 16777215
370
    18
100
AcDbLine
 10
120.138921116908
 20
203.147888631559
 30
0.0
 11
126.708953266675
 21
209.717920781326
 31
0.0
  0
LINE
  5
258
330
170
100
AcDbEntity
  8
PROFILE
  6
AUSGEZOGEN
 62
     7
420
 16777215
370
    18
100
AcDbLine
 10
117.130264372405
 20
193.050554390185
 30
0.0
 11
118.011753621584
 21
193.932043639364
 31
0.0
  0
LINE
  5
259
330
170
100
AcDbEntity
  8
PROFILE
  6
AUSGEZOGEN
 62
     7
420
 16777215
370
    18
100
AcDbLine
 10
121.302646818519
 20
193.050554390185
 30
0.0
 11
122.066604167808
 21
193.814511739474
 31
0.0
  0
LINE
  5
25A
330
170
100
AcDbEntity
  8
PROFILE
  6
AUSGEZOGEN
 62
     7
420
 16777215
370
    18
100
AcDbLine
 10
129.294816011076
 20
194.732294253745
 30
0.0
 11
130.033117625079
 21
195.470595867749
 31
0.0
  0
LINE
  5
25B
330
170
100
AcDbEntity
  8
PROFILE
  6
AUSGEZOGEN
 62
     7
420
 16777215
370
    18
100
AcDbLine
 10
129.294816011076
 20
193.050554390185
 30
0.0
 11
130.519098385935
 21
194.274836765044
 31
0.0
  0
LINE
  5
25C
330
170
100
AcDbEntity
  8
PROFILE
  6
AUSGEZOGEN
 62
     7
420
 16777215
370
    18
100
AcDbLine
 10
122.066604167808
 20
194.732294253745
 30
0.0
 11
122.751757445555
 21
195.417447531492
 31
0.0
  0
LINE
  5
25D
330
170
100
AcDbEntity
  8
PROFILE
  6
AUSGEZOGEN
 62
     7
420
 16777215
370
    18
100
AcDbLine
 10
125.181199514907
 20
195.417447531492
 30
0.0
 11
126.180220663977
 21
196.416468680562
 31
0.0
  0
LINE
  5
25E
330
170
100
AcDbEntity
  8
PROFILE
  6
AUSGEZOGEN
 62
     7
420
 16777215
370
    18
100
AcDbLine
 10
129.294816011076
 20
195.417447531492
 30
0.0
 11
129.955975029219
 21
196.078606549635
 31
0.0
  0
HATCH
  5
25F
330
170
100
AcDbEntity
  8
PROFILE
  6
AUSGEZOGEN
 62
     7
420
 16777215
370
    18
100
AcDbHatch
 10
0.0
 20
0.0
 30
0.0
210
0.0
220
0.0
230
1.0
  2
SOLID
 70
     1
 71
     0
 91
        1
 92
        2
 72
     1
 73
     1
 93
       36
 10
118.0117536215844
 20
200.3422606553922
 42
0.0
 10
118.0117536215844
 20
193.0505543901851
 42
0.0
 10
121.1924536488289
 20
193.0505543901851
 42
0.0
 10
121.1924536488289
 20
200.3459300204922
 42
-0.0984914033571201
 10
121.2257240219089
 20
200.5131914809955
 42
-0.0984914033573957
 10
121.3204700284444
 20
200.654988900366
 42
-0.0984914033573227
 10
121.4622674478151
 20
200.7497349069016
 42
-0.0984914033570199
 10
121.6295289083184
 20
200.7830052799816
 42
-0.098491403357036
 10
121.7967903688217
 20
200.7497349069016
 42
-0.09849140335735
 10
121.9385877881922
 20
200.654988900366
 42
-0.0984914033573958
 10
122.0333337947277
 20
200.5131914809955
 42
-0.0984914033571168
 10
122.0666041678078
 20
200.3459300204922
 42
0.0
 10
122.0666041678078
 20
195.4174475314922
 42
0.0
 10
125.181199514907
 20
195.4174475314922
 42
0.0
 10
125.181199514907
 20
201.0593085338465
 42
0.092192152815687
 10
124.9837333231299
 20
202.1211551391231
 42
0.0921921528156888
 10
124.4177375099839
 20
203.0410246133061
 42
0.0921921528156937
 10
123.5588901078347
 20
203.6959232694769
 42
0.0921921528156405
 10
122.5220256790366
 20
203.9982860752677
 42
0.0921921528156545
 10
121.4457810438255
 20
203.9076847771984
 42
0.0921921528156871
 10
120.4740584616264
 20
203.4362334718901
 42
0.0921921528156574
 10
119.7367847822819
 20
202.6469688573416
 42
0.0844609494626365
 10
119.0866738390729
 20
203.3760729677898
 42
0.0844609494626342
 10
118.2320266895009
 20
203.8491641768404
 42
0.084460949462618
 10
117.2690144227027
 20
204.0130068341335
 42
0.0
 10
114.0156690253062
 20
204.0130068341335
 42
0.0
 10
114.0156690253062
 20
193.0505543901851
 42
0.0
 10
117.1302643724054
 20
193.0505543901851
 42
0.0
 10
117.1302643724054
 20
200.3422606553922
 42
-0.0984914033572098
 10
117.1638140592723
 20
200.5109263211265
 42
-0.0984914033570297
 10
117.2593554841761
 20
200.653914168211
 42
-0.0984914033570615
 10
117.4023433312605
 20
200.7494555931148
 42
-0.098491403357133
 10
117.5710089969948
 20
200.7830052799817
 42
-0.098491403357101
 10
117.7396746627292
 20
200.7494555931148
 42
-0.0984914033570886
 10
117.8826625098136
 20
200.653914168211
 42
-0.0984914033570117
 10
117.9782039347175
 20
200.5109263211265
 42
-0.0984914033572098
 97
        0
 75
     0
 76
     1
 98
        0
  0
HATCH
  5
260
330
170
100
AcDbEntity
  8
PROFILE
  6
AUSGEZOGEN
 62
     7
420
 16777215
370
    18
100
AcDbHatch
 10
0.0
 20
0.0
 30
0.0
210
0.0
220
0.0
230
1.0
  2
SOLID
 70
     1
 71
     0
 91
        1
 92
        2
 72
     1
 73
     1
 93
       25
 10
130.3947559222616
 20
204.0130068341335
 42
0.0
 10
126.1802206639766
 20
204.0130068341335
 42
0.0
 10
126.1802206639766
 20
195.4174475314922
 42
0.0
 10
129.2948160110757
 20
195.4174475314922
 42
0.0
 10
129.2948160110757
 20
200.9304416962307
 42
0.0
 10
129.9641764430253
 20
200.9304416962307
 42
-0.0984914033573451
 10
130.2623499032242
 20
200.8711313073727
 42
-0.0984914033573152
 10
130.515129157057
 20
200.7022296098525
 42
-0.0984914033570853
 10
130.6840308545773
 20
200.4494503560197
 42
-0.0984914033571532
 10
130.7433412434353
 20
200.1512768958208
 42
-0.0984914033571352
 10
130.6840308545773
 20
199.8531034356218
 42
-0.0984914033570546
 10
130.515129157057
 20
199.6003241817889
 42
-0.0984914033573153
 10
130.2623499032242
 20
199.4314224842687
 42
-0.0984914033573524
 10
129.9641764430253
 20
199.3721120954108
 42
0.0
 10
129.9559750292187
 20
199.3721120954108
 42
0.0
 10
129.9559750292187
 20
195.6604057710119
 42
0.0
 10
131.0166715833209
 20
193.0505543901851
 42
0.0
 10
134.6425174560951
 20
193.0505543901851
 42
0.0
 10
132.8146851259117
 20
197.5710123401524
 42
0.0
 10
133.1612310987852
 20
197.9175583130258
 42
0.0956852398052985
 10
133.8634090557255
 20
199.1218034735498
 42
0.0956852398052948
 10
134.0666399971401
 20
200.5009182165317
 42
0.0956852398053042
 10
133.7416902499633
 20
201.8565243361947
 42
0.0956852398052757
 10
132.9353020799428
 20
202.9936252152328
 42
0.0956852398052787
 10
131.7634700692131
 20
203.7486550348343
 42
0.0956852398052959
 97
        0
 75
     0
 76
     1
 98
        0
  0
HATCH
  5
261
330
170
100
AcDbEntity
  8
PROFILE
  6
AUSGEZOGEN
 62
     1
420
 16711680
370
    18
100
AcDbHatch
 10
0.0
 20
0.0
 30
0.0
210
0.0
220
0.0
230
1.0
  2
SOLID
 70
     1
 71
     0
 91
        1
 92
        2
 72
     0
 73
     1
 93
        4
 10
122.0666041678078
 20
194.7322942537454
 10
122.0666041678078
 20
193.0505543901851
 10
129.2948160110757
 20
193.0505543901851
 10
129.2948160110757
 20
194.7322942537454
 97
        0
 75
     0
 76
     1
 98
        0
  0
LINE
  5
262
330
170
100
AcDbEntity
  8
PROFILE
  6
AUSGEZOGEN
 62
     5
420
      255
370
    18
100
AcDbLine
 10
119.026847925458
 20
213.782492152973
 30
0.0
 11
238.879466158159
 21
213.782492152973
 31
0.0
  0
LINE
  5
263
330
170
100
AcDbEntity
  8
PROFILE
  6
AUSGEZOGEN
 62
     5
420
      255
370
    18
100
AcDbLine
 10
109.501847925458
 20
198.326727547103
 30
0.0
 11
109.501847925458
 21
204.257492152973
 31
0.0
  0
ARC
  5
264
330
170
100
AcDbEntity
  8
PROFILE
  6
AUSGEZOGEN
 62
     5
420
      255
370
    18
100
AcDbCircle
 10
119.026847925458
 20
204.257492152973
 30
0.0
 40
9.524999999999999
100
AcDbArc
 50
90.0
 51
180.0
  0
WIPEOUT
  5
265
330
170
100
AcDbEntity
  8
PROFILE
  6
AUSGEZOGEN
 62
     1
420
 16711680
370
    18
 92
      308
310
34010000070000000C0000000E000000120000000C00000016000000000000C20C00000014000000010000006C000000070000000400000034CA1E8A6C3B6240466BBBE374AA69400000000000000000AC7F8055A22A6E40466BBBE374AA69400000000000000000AC7F8055A22A6E40AEB0DEE453A76A4000000000000000
310
0034CA1E8A6C3B6240AEB0DEE453A76A4000000000000000000C0000000E000000010000000C000000160000000000FFC284000000060000000500000034CA1E8A6C3B6240466BBBE374AA69400000000000000000AC7F8055A22A6E40466BBBE374AA69400000000000000000AC7F8055A22A6E40AEB0DEE453A76A400000
310
00000000000034CA1E8A6C3B6240AEB0DEE453A76A40000000000000000034CA1E8A6C3B6240466BBBE374AA69400000000000000000
100
AcDbWipeout
 90
        0
 10
145.856999454628
 20
205.32676874738
 30
0.0
 11
95.47531670650258
 21
0.0
 31
0.0
 12
0.0
 22
95.47531670650258
 32
0.0
 13
1.0
 23
1.0
340
0
 70
     7
280
     1
281
    50
282
    50
283
     0
360
0
 71
     2
 91
        5
 14
-0.5
 24
0.5
 14
0.5
 24
0.5
 14
0.5
 24
0.417232825249
 14
-0.5
 24
0.417232825249
 14
-0.5
 24
0.5
  0
TEXT
  5
266
330
170
100
AcDbEntity
  8
PROFILE
  6
AUSGEZOGEN
 62
     1
420
 16711680
370
    18
100
AcDbText
 10
145.856999454628
 20
206.808435414047
 30
0.0
 40
4.938888888889
  1
Mirror Reflections Inc.
 41
1.424144335948
  7
Lucida Calligraphy
 72
     5
 11
241.332316161131
 21
206.808435414047
 31
0.0
100
AcDbText
  0
WIPEOUT
  5
267
330
170
100
AcDbEntity
  8
PROFILE
  6
AUSGEZOGEN
 62
     7
420
 16777215
370
    18
 92
      308
310
34010000070000000C0000000E000000120000000C00000016000000000000C20C00000014000000010000006C000000070000000400000018F42D8D692C6240B428ABC709086940000000000000000078FEB44C5C2F6E40B428ABC709086940000000000000000078FEB44C5C2F6E40E65BDEFA3CBB694000000000000000
310
0018F42D8D692C6240E65BDEFA3CBB694000000000000000000C0000000E000000070000000C00000016000000FFFFFFC284000000060000000500000018F42D8D692C6240B428ABC709086940000000000000000078FEB44C5C2F6E40B428ABC709086940000000000000000078FEB44C5C2F6E40E65BDEFA3CBB69400000
310
00000000000018F42D8D692C6240E65BDEFA3CBB6940000000000000000018F42D8D692C6240B428ABC7090869400000000000000000
100
AcDbWipeout
 90
        0
 10
145.387884702447
 20
200.251193842215
 30
0.0
 11
96.09213234305483
 21
0.0
 31
0.0
 12
0.0
 22
96.09213234305483
 32
0.0
 13
1.0
 23
1.0
340
0
 70
     7
280
     1
281
    50
282
    50
283
     0
360
0
 71
     2
 91
        5
 14
-0.5
 24
0.5
 14
0.5
 24
0.5
 14
0.5
 24
0.441722596185
 14
-0.5
 24
0.441722596185
 14
-0.5
 24
0.5
  0
TEXT
  5
268
330
170
100
AcDbEntity
  8
PROFILE
  6
AUSGEZOGEN
 62
     7
420
 16777215
370
    18
100
AcDbText
 10
145.387884702447
 20
201.301193842215
 30
0.0
 40
3.5
  1
1588 South 250 East - Kaysville Utah 84037
 41
1.002442491425
  7
Lucida Calligraphy
 72
     5
 11
241.480017045502
 21
201.301193842215
 31
0.0
100
AcDbText
  0
WIPEOUT
  5
269
330
170
100
AcDbEntity
  8
PROFILE
  6
AUSGEZOGEN
 62
     7
420
 16777215
370
    18
 92
      308
310
34010000070000000C0000000E000000120000000C00000016000000000000C20C00000014000000010000006C0000000700000004000000DF474C93630E624024C6B6852355684000000000000000004303E36F741C6E4024C6B6852355684000000000000000004303E36F741C6E4057F9E9B85608694000000000000000
310
00DF474C93630E624057F9E9B85608694000000000000000000C0000000E000000070000000C00000016000000FFFFFFC2840000000600000005000000DF474C93630E624024C6B6852355684000000000000000004303E36F741C6E4024C6B6852355684000000000000000004303E36F741C6E4057F9E9B8560869400000
310
000000000000DF474C93630E624057F9E9B8560869400000000000000000DF474C93630E624024C6B685235568400000000000000000
100
AcDbWipeout
 90
        0
 10
144.449655198084
 20
194.660586220723
 30
0.0
 11
96.43955830993502
 21
0.0
 31
0.0
 12
0.0
 22
96.43955830993502
 32
0.0
 13
1.0
 23
1.0
340
0
 70
     7
280
     1
281
    50
282
    50
283
     0
360
0
 71
     2
 91
        5
 14
-0.5
 24
0.5
 14
0.5
 24
0.5
 14
0.5
 24
0.441932542018
 14
-0.5
 24
0.441932542018
 14
-0.5
 24
0.5
  0
TEXT
  5
26A
330
170
100
AcDbEntity
  8
PROFILE
  6
AUSGEZOGEN
 62
     7
420
 16777215
370
    18
100
AcDbText
 10
144.449655198084
 20
195.710586220723
 30
0.0
 40
3.5
  1
Phone / Fax (801)-451-5987
 41
1.571470258762
  7
Lucida Calligraphy
 72
     5
 11
240.889213508019
 21
195.710586220723
 31
0.0
100
AcDbText
  0
WIPEOUT
  5
26B
330
170
100
AcDbEntity
  8
PROFILE
  6
AUSGEZOGEN
 62
     7
420
 16777215
370
    18
 92
      308
310
34010000070000000C0000000E000000120000000C00000016000000000000C20C00000014000000010000006C0000000700000004000000FC9AF67EC3046240C09A9D0FAFA26740000000000000000038B0518B58166E40C09A9D0FAFA26740000000000000000038B0518B58166E400A3A92594E57684000000000000000
310
00FC9AF67EC30462400A3A92594E57684000000000000000000C0000000E000000070000000C00000016000000FFFFFFC2840000000600000005000000FC9AF67EC3046240C09A9D0FAFA26740000000000000000038B0518B58166E40C09A9D0FAFA26740000000000000000038B0518B58166E400A3A92594E5768400000
310
000000000000FC9AF67EC30462400A3A92594E5768400000000000000000FC9AF67EC3046240C09A9D0FAFA267400000000000000000
100
AcDbWipeout
 90
        0
 10
144.148864251758
 20
189.083869750806
 30
0.0
 11
96.54944436826364
 21
0.0
 31
0.0
 12
0.0
 22
96.54944436826364
 32
0.0
 13
1.0
 23
1.0
340
0
 70
     7
280
     1
281
    50
282
    50
283
     0
360
0
 71
     2
 91
        5
 14
-0.5
 24
0.5
 14
0.5
 24
0.5
 14
0.5
 24
0.441538302148
 14
-0.5
 24
0.441538302148
 14
-0.5
 24
0.5
  0
TEXT
  5
26C
330
170
100
AcDbEntity
  8
PROFILE
  6
AUSGEZOGEN
 62
     7
420
 16777215
370
    18
100
AcDbText
 10
144.148864251758
 20
190.142203084139
 30
0.0
 40
3.527777777778
  1
www.mirror-reflections.com
 41
1.618758291542
  7
Lucida Calligraphy
 72
     5
 11
240.698308620021
 21
190.142203084139
 31
0.0
100
AcDbText
  0
LINE
  5
26D
330
170
100
AcDbEntity
  8
PROFILE
  6
AUSGEZOGEN
 62
     5
420
      255
370
    18
100
AcDbLine
 10
248.404466158159
 20
198.326727547103
 30
0.0
 11
248.404466158159
 21
204.257492152973
 31
0.0
  0
ARC
  5
26E
330
170
100
AcDbEntity
  8
PROFILE
  6
AUSGEZOGEN
 62
     5
420
      255
370
    18
100
AcDbCircle
 10
238.879466158159
 20
204.257492152973
 30
0.0
 40
9.524999999999999
100
AcDbArc
 50
0.0
 51
90.0
  0
LINE
  5
26F
330
170
100
AcDbEntity
  8
PROFILE
  6
AUSGEZOGEN
 62
     5
420
      255
370
    18
100
AcDbLine
 10
119.026847925458
 20
188.801727547103
 30
0.0
 11
238.879466158159
 21
188.801727547103
 31
0.0
  0
ARC
  5
270
330
170
100
AcDbEntity
  8
PROFILE
  6
AUSGEZOGEN
 62
     5
420
      255
370
    18
100
AcDbCircle
 10
238.879466158159
 20
198.326727547103
 30
0.0
 40
9.524999999999999
100
AcDbArc
 50
270.0
 51
0.0
  0
ARC
  5
271
330
170
100
AcDbEntity
  8
PROFILE
  6
AUSGEZOGEN
 62
     5
420
      255
370
    18
100
AcDbCircle
 10
119.026847925458
 20
198.326727547103
 30
0.0
 40
9.524999999999999
100
AcDbArc
 50
180.0
 51
270.0
  0
LINE
  5
272
330
170
100
AcDbEntity
  8
PROFILE
  6
AUSGEZOGEN
 62
     5
420
      255
370
    18
100
AcDbLine
 10
236.686819956582
 20
-33.641221934817
 30
0.0
 11
236.686819956582
 21
-22.445160952395
 31
0.0
  0
WIPEOUT
  5
273
330
170
100
AcDbEntity
  8
PROFILE
  6
AUSGEZOGEN
 62
     5
420
      255
370
    18
 92
      308
310
34010000070000000C0000000E000000120000000C00000016000000000000C20C00000014000000010000006C0000000700000004000000CB4C473FC5FB56401A9A8674ED3F3BC00000000000000000CD77CE559EAA5A401A9A8674ED3F3BC00000000000000000CD77CE559EAA5A4041389C01F2BB36C000000000000000
310
00CB4C473FC5FB564041389C01F2BB36C000000000000000000C0000000E000000050000000C00000016000000FF0000C2840000000600000005000000CB4C473FC5FB56401A9A8674ED3F3BC00000000000000000CD77CE559EAA5A401A9A8674ED3F3BC00000000000000000CD77CE559EAA5A4041389C01F2BB36C00000
310
000000000000CB4C473FC5FB564041389C01F2BB36C00000000000000000CB4C473FC5FB56401A9A8674ED3F3BC00000000000000000
100
AcDbWipeout
 90
        0
 10
91.933914012555
 20
-27.249717028486
 30
0.0
 11
14.732
 21
0.0
 31
0.0
 12
0.0
 22
14.732
 32
0.0
 13
1.0
 23
1.0
340
0
 70
     7
280
     1
281
    50
282
    50
283
     0
360
0
 71
     2
 91
        5
 14
-0.5
 24
0.5
 14
0.5
 24
0.5
 14
0.5
 24
0.193486590038
 14
-0.5
 24
0.193486590038
 14
-0.5
 24
0.5
  0
TEXT
  5
274
330
170
100
AcDbEntity
  8
PROFILE
  6
AUSGEZOGEN
 62
     5
420
      255
370
    18
100
AcDbText
 10
91.933914012555
 20
-26.403050361819
 30
0.0
 40
2.822222222222
  1
Customer
 41
0.862809917355
  7
Lucida Calligraphy
 72
     5
 11
106.665914012555
 21
-26.403050361819
 31
0.0
100
AcDbText
  0
WIPEOUT
  5
275
330
170
100
AcDbEntity
  8
PROFILE
  6
AUSGEZOGEN
 62
     5
420
      255
370
    18
 92
      308
310
34010000070000000C0000000E000000120000000C00000016000000000000C20C00000014000000010000006C0000000700000004000000630F77B8275E604084D4847A95923BC000000000000000008BB22E1ED55C614084D4847A95923BC000000000000000008BB22E1ED55C6140AB729A079A0E37C000000000000000
310
00630F77B8275E6040AB729A079A0E37C000000000000000000C0000000E000000050000000C00000016000000FF0000C2840000000600000005000000630F77B8275E604084D4847A95923BC000000000000000008BB22E1ED55C614084D4847A95923BC000000000000000008BB22E1ED55C6140AB729A079A0E37C00000
310
000000000000630F77B8275E6040AB729A079A0E37C00000000000000000630F77B8275E604084D4847A95923BC00000000000000000
100
AcDbWipeout
 90
        0
 10
130.942348701991
 20
-27.572593362264
 30
0.0
 11
7.958666666666659
 21
0.0
 31
0.0
 12
0.0
 22
7.958666666666659
 32
0.0
 13
1.0
 23
1.0
340
0
 70
     7
280
     1
281
    50
282
    50
283
     0
360
0
 71
     2
 91
        5
 14
-0.5
 24
0.5
 14
0.5
 24
0.5
 14
0.5
 24
-0.067375886525
 14
-0.5
 24
-0.067375886525
 14
-0.5
 24
0.5
  0
TEXT
  5
276
330
170
100
AcDbEntity
  8
PROFILE
  6
AUSGEZOGEN
 62
     5
420
      255
370
    18
100
AcDbText
 10
130.942348701991
 20
-26.725926695597
 30
0.0
 40
2.822222222222
  1
Scale
 41
0.807791463764
  7
Lucida Calligraphy
 72
     5
 11
138.901015368658
 21
-26.725926695597
 31
0.0
100
AcDbText
  0
WIPEOUT
  5
277
330
170
100
AcDbEntity
  8
PROFILE
  6
AUSGEZOGEN
 62
     5
420
      255
370
    18
 92
      308
310
34010000070000000C0000000E000000120000000C00000016000000000000C20C00000014000000010000006C0000000700000004000000C033F535C2506740D4614C54454A3BC00000000000000000F4D8D72286946840D4614C54454A3BC00000000000000000F4D8D72286946840FBFF61E149C636C000000000000000
310
00C033F535C2506740FBFF61E149C636C000000000000000000C0000000E000000050000000C00000016000000FF0000C2840000000600000005000000C033F535C2506740D4614C54454A3BC00000000000000000F4D8D72286946840D4614C54454A3BC00000000000000000F4D8D72286946840FBFF61E149C636C00000
310
000000000000C033F535C2506740FBFF61E149C636C00000000000000000C033F535C2506740D4614C54454A3BC00000000000000000
100
AcDbWipeout
 90
        0
 10
186.523707369719
 20
-27.29012038102
 30
0.0
 11
10.11766666666668
 21
0.0
 31
0.0
 12
0.0
 22
10.11766666666668
 32
0.0
 13
1.0
 23
1.0
340
0
 70
     7
280
     1
281
    50
282
    50
283
     0
360
0
 71
     2
 91
        5
 14
-0.5
 24
0.5
 14
0.5
 24
0.5
 14
0.5
 24
0.05369595537
 14
-0.5
 24
0.05369595537
 14
-0.5
 24
0.5
  0
TEXT
  5
278
330
170
100
AcDbEntity
  8
PROFILE
  6
AUSGEZOGEN
 62
     5
420
      255
370
    18
100
AcDbText
 10
186.523707369719
 20
-26.443453714353
 30
0.0
 40
2.822222222222
  1
Part #
 41
0.962674543502
  7
Lucida Calligraphy
 72
     5
 11
196.641374036386
 21
-26.443453714353
 31
0.0
100
AcDbText
  0
WIPEOUT
  5
279
330
170
100
AcDbEntity
  8
PROFILE
  6
AUSGEZOGEN
 62
     5
420
      255
370
    18
 92
      308
310
34010000070000000C0000000E000000120000000C00000016000000000000C20C00000014000000010000006C000000070000000400000084AFC28F7A976F407C4CC3A32B763BC00000000000000000EC6C4867FB4470407C4CC3A32B763BC00000000000000000EC6C4867FB447040A3EAD83030F236C000000000000000
310
0084AFC28F7A976F40A3EAD83030F236C000000000000000000C0000000E000000050000000C00000016000000FF0000C284000000060000000500000084AFC28F7A976F407C4CC3A32B763BC00000000000000000EC6C4867FB4470407C4CC3A32B763BC00000000000000000EC6C4867FB447040A3EAD83030F236C00000
310
00000000000084AFC28F7A976F40A3EAD83030F236C0000000000000000084AFC28F7A976F407C4CC3A32B763BC00000000000000000
100
AcDbWipeout
 90
        0
 10
252.733711128469
 20
-27.461603388958
 30
0.0
 11
7.577666666666687
 21
0.0
 31
0.0
 12
0.0
 22
7.577666666666687
 32
0.0
 13
1.0
 23
1.0
340
0
 70
     7
280
     1
281
    50
282
    50
283
     0
360
0
 71
     2
 91
        5
 14
-0.5
 24
0.5
 14
0.5
 24
0.5
 14
0.5
 24
-0.095903165736
 14
-0.5
 24
-0.095903165736
 14
-0.5
 24
0.5
  0
TEXT
  5
27A
330
170
100
AcDbEntity
  8
PROFILE
  6
AUSGEZOGEN
 62
     5
420
      255
370
    18
100
AcDbText
 10
252.733711128469
 20
-26.614936722292
 30
0.0
 40
2.822222222222
  1
Date
 41
0.91078697422
  7
Lucida Calligraphy
 72
     5
 11
260.311377795136
 21
-26.614936722292
 31
0.0
100
AcDbText
  0
LINE
  5
27B
330
170
100
AcDbEntity
  8
PROFILE
  6
AUSGEZOGEN
 62
     5
420
      255
370
    18
100
AcDbLine
 10
123.446247090685
 20
-33.641221934817
 30
0.0
 11
123.446247090685
 21
-22.445160952395
 31
0.0
  0
LINE
  5
27C
330
170
100
AcDbEntity
  8
PROFILE
  6
AUSGEZOGEN
 62
     5
420
      255
370
    18
100
AcDbLine
 10
146.605021860169
 20
-33.641221934817
 30
0.0
 11
146.605021860169
 21
-22.445160952395
 31
0.0
  0
TEXT
  5
27D
330
170
100
AcDbEntity
  8
PROFILE
  6
AUSGEZOGEN
 62
     7
420
 16777215
370
    18
100
AcDbText
 10
174.346499529816
 20
-20.129335536356
 30
0.0
 40
4.181939959382
  1
 Yes   No       Please Circle One
 41
1.180002116037
  7
Lucida Calligraphy
 72
     5
 11
271.584723643712
 21
-20.129335536356
 31
0.0
100
AcDbText
  0
WIPEOUT
  5
27E
330
170
100
AcDbEntity
  8
PROFILE
  6
AUSGEZOGEN
 62
     7
420
 16777215
370
    18
 92
      308
310
34010000070000000C0000000E000000120000000C00000016000000000000C20C00000014000000010000006C0000000700000004000000E817B764710D6040D1A495D356FD56400000000000000000B4E4638EA2996D40D1A495D356FD56400000000000000000B4E4638EA2996D40370BFC39BD63584000000000000000
310
00E817B764710D6040370BFC39BD63584000000000000000000C0000000E000000070000000C00000016000000FFFFFFC2840000000600000005000000E817B764710D6040D1A495D356FD56400000000000000000B4E4638EA2996D40D1A495D356FD56400000000000000000B4E4638EA2996D40370BFC39BD6358400000
310
000000000000E817B764710D6040370BFC39BD6358400000000000000000E817B764710D6040D1A495D356FD56400000000000000000
100
AcDbWipeout
 90
        0
 10
128.420091970066
 20
91.958424469124
 30
0.0
 11
108.3810013175011
 21
0.0
 31
0.0
 12
0.0
 22
108.3810013175011
 32
0.0
 13
1.0
 23
1.0
340
0
 70
     7
280
     1
281
    50
282
    50
283
     0
360
0
 71
     2
 91
        5
 14
-0.5
 24
0.5
 14
0.5
 24
0.5
 14
0.5
 24
0.448330427548
 14
-0.5
 24
0.448330427548
 14
-0.5
 24
0.5
  0
TEXT
  5
27F
330
170
100
AcDbEntity
  8
PROFILE
  6
AUSGEZOGEN
 62
     7
420
 16777215
370
    18
100
AcDbText
 10
128.420091970066
 20
93.008424469124
 30
0.0
 40
3.5
  1
Custom Pressure Shoe Recommended
 41
1.275318165497
  7
Lucida Calligraphy
 72
     5
 11
236.801093287567
 21
93.008424469124
 31
0.0
100
AcDbText
  0
HATCH
  5
280
330
170
100
AcDbEntity
  8
PROFILE
  6
AUSGEZOGEN
 62
     4
420
    65535
370
    18
100
AcDbHatch
 10
0.0
 20
0.0
 30
0.0
210
0.0
220
0.0
230
1.0
  2
MegaCAD_ansi36
 70
     0
 71
     0
 91
        1
 92
        2
 72
     1
 73
     1
 93
       44
 10
150.6142264921553
 20
121.0045401364105
 42
0.0
 10
152.2017264921554
 20
122.5920401364105
 42
0.0
 10
212.5267264921553
 20
122.5920401364105
 42
0.0
 10
214.1142264921552
 20
121.0045401364105
 42
0.0
 10
233.1642264921553
 20
121.0045401364105
 42
0.0
 10
233.1642264921553
 20
125.7797401364105
 42
-0.0984914033571633
 10
230.734186696637
 20
126.2631051049639
 42
-0.0984914033571653
 10
228.6740984316207
 20
127.639612075876
 42
-0.0919765470723582
 10
227.3622967727856
 20
129.5490209476001
 42
-0.0919765470723586
 10
226.8226947043019
 20
131.8019069720651
 42
0.0
 10
221.2854947043019
 20
131.8019069720651
 42
0.0
 10
221.2237262976198
 20
132.3895941049955
 42
0.0852907189784256
 10
220.8888159696686
 20
133.5770965536512
 42
0.0852907189784232
 10
220.1767191360284
 20
134.5846902678293
 42
0.0984914033571615
 10
218.9948969115063
 20
135.3743586320732
 42
0.1989123673796588
 10
216.2067881827824
 20
135.3743586320733
 42
0.0984914033571631
 10
215.0249659582603
 20
134.5846902678293
 42
0.0852907189784248
 10
214.3128691246201
 20
133.5770965536512
 42
0.0852907189784204
 10
213.977958796669
 20
132.3895941049955
 42
0.0
 10
213.916190389987
 20
131.8019069720652
 42
0.0
 10
208.3789903899869
 20
131.8019069720651
 42
-0.0122091018413559
 10
208.1319354425695
 20
131.5157216439966
 42
-0.0122091018413556
 10
207.8712050048892
 20
131.2419373714168
 42
-0.0984914033571629
 10
205.3592765533271
 20
129.5635204401013
 42
-0.0984914033571665
 10
202.3962549175808
 20
128.9741387919379
 42
-0.0674337623789639
 10
200.3360407179868
 20
129.2532640512355
 42
-0.0674337623789656
 10
198.4243675204111
 20
130.0705149577859
 42
0.0
 10
182.5602771178299
 20
139.5509316405204
 42
0.0674337623789649
 10
179.5563383888251
 20
140.8351321265734
 42
0.0674337623789646
 10
176.3189873436494
 20
141.2737401364105
 42
0.0984914033571647
 10
171.6629951699949
 20
140.3476057106477
 42
0.0984914033571637
 10
167.715835598105
 20
137.7101980042522
 42
0.0552725834462079
 10
166.0400925335308
 20
135.616482593464
 42
0.055272583446208
 10
164.8637354971639
 20
133.2065151325154
 42
-0.0892573351281303
 10
160.75166294788
 20
134.262062500991
 42
-0.0892573351281299
 10
157.26551909835
 20
136.6848959575154
 42
-0.0611516263061003
 10
155.4672242832557
 20
138.9865044325959
 42
-0.0611516263061007
 10
154.2790390942191
 20
141.6547401364105
 42
0.0
 10
135.5266264921553
 20
141.6547401364105
 42
0.0984914033571622
 10
134.0102816597519
 20
141.3531203960332
 42
0.0984914033571656
 10
132.7247865823817
 20
140.4941800461841
 42
0.0984914033571656
 10
131.8658462325326
 20
139.208684968814
 42
0.0984914033571622
 10
131.5642264921553
 20
137.6923401364105
 42
0.0
 10
131.5642264921553
 20
121.0045401364105
 42
0.0
 97
        0
 75
     0
 76
     1
 52
0.0
 41
1.0
 77
     0
 78
     1
 53
45.0
 43
0.0
 44
0.0
 45
0.6629126073623884
 46
2.430679560328757
 79
     4
 49
3.125
 49
-0.625
 49
0.0
 49
-0.625
 98
        0
  0
LINE
  5
281
330
170
100
AcDbEntity
  8
PROFILE
  6
AUSGEZOGEN
 62
     7
420
 16777215
370
    18
100
AcDbLine
 10
272.757275996316
 20
105.997757943715
 30
0.0
 11
240.100133139173
 21
105.997757943715
 31
0.0
  0
LINE
  5
282
330
170
100
AcDbEntity
  8
PROFILE
  6
AUSGEZOGEN
 62
     7
420
 16777215
370
    18
100
AcDbLine
 10
272.757275996316
 20
105.997757943715
 30
0.0
 11
272.757275996316
 21
122.326329372286
 31
0.0
  0
LINE
  5
283
330
170
100
AcDbEntity
  8
PROFILE
  6
AUSGEZOGEN
 62
     7
420
 16777215
370
    18
100
AcDbLine
 10
240.100133139173
 20
105.997757943715
 30
0.0
 11
240.100133139173
 21
108.719186515143
 31
0.0
  0
LINE
  5
284
330
170
100
AcDbEntity
  8
PROFILE
  6
AUSGEZOGEN
 62
     7
420
 16777215
370
    18
100
AcDbLine
 10
272.757275996316
 20
122.326329372286
 30
0.0
 11
270.035847424887
 21
122.326329372286
 31
0.0
  0
LINE
  5
285
330
170
100
AcDbEntity
  8
PROFILE
  6
AUSGEZOGEN
 62
     7
420
 16777215
370
    18
100
AcDbLine
 10
270.035847424887
 20
108.719186515143
 30
0.0
 11
270.035847424887
 21
122.326329372286
 31
0.0
  0
LINE
  5
286
330
170
100
AcDbEntity
  8
PROFILE
  6
AUSGEZOGEN
 62
     7
420
 16777215
370
    18
100
AcDbLine
 10
270.035847424887
 20
108.719186515143
 30
0.0
 11
240.100133139173
 21
108.719186515143
 31
0.0
  0
WIPEOUT
  5
287
330
170
100
AcDbEntity
  8
PROFILE
  6
AUSGEZOGEN
 62
     7
420
 16777215
370
    18
 92
      308
310
34010000070000000C0000000E000000120000000C00000016000000000000C20C00000014000000010000006C00000007000000040000005C62C438E1676E4018111FAEFF525C40000000000000000076C763EBA29B704018111FAEFF525C40000000000000000076C763EBA29B70404B4452E132865D4000000000000000
310
005C62C438E1676E404B4452E132865D4000000000000000000C0000000E000000070000000C00000016000000FFFFFFC28400000006000000050000005C62C438E1676E4018111FAEFF525C40000000000000000076C763EBA29B704018111FAEFF525C40000000000000000076C763EBA29B70404B4452E132865D400000
310
0000000000005C62C438E1676E404B4452E132865D4000000000000000005C62C438E1676E4018111FAEFF525C400000000000000000
100
AcDbWipeout
 90
        0
 10
243.246242888987
 20
113.29685547861
 30
0.0
 11
22.48103237743314
 21
0.0
 31
0.0
 12
0.0
 22
22.48103237743314
 32
0.0
 13
1.0
 23
1.0
340
0
 70
     7
280
     1
281
    50
282
    50
283
     0
360
0
 71
     2
 91
        5
 14
-0.5
 24
0.5
 14
0.5
 24
0.5
 14
0.5
 24
0.28648667377
 14
-0.5
 24
0.28648667377
 14
-0.5
 24
0.5
  0
TEXT
  5
288
330
170
100
AcDbEntity
  8
PROFILE
  6
AUSGEZOGEN
 62
     7
420
 16777215
370
    18
100
AcDbText
 10
243.246242888987
 20
114.19685547861
 30
0.0
 40
3.0
  1
In Feed View
 41
0.919921121918
  7
Lucida Calligraphy
 72
     5
 11
265.727275266421
 21
114.19685547861
 31
0.0
100
AcDbText
  0
WIPEOUT
  5
289
330
170
100
AcDbEntity
  8
PROFILE
  6
AUSGEZOGEN
 62
     5
420
      255
370
    18
 92
      308
310
34010000070000000C0000000E000000120000000C00000016000000000000C20C00000014000000010000006C0000000700000004000000369BA0B8037D6E405521BEA175215940000000000000000001B4D665C3C070405521BEA175215940000000000000000001B4D665C3C070408854F1D4A8545A4000000000000000
310
00369BA0B8037D6E408854F1D4A8545A4000000000000000000C0000000E000000050000000C00000016000000FF0000C2840000000600000005000000369BA0B8037D6E405521BEA175215940000000000000000001B4D665C3C070405521BEA175215940000000000000000001B4D665C3C070408854F1D4A8545A400000
310
000000000000369BA0B8037D6E408854F1D4A8545A400000000000000000369BA0B8037D6E405521BEA1752159400000000000000000
100
AcDbWipeout
 90
        0
 10
243.906704248127
 20
100.522804675745
 30
0.0
 11
24.14100029468534
 21
0.0
 31
0.0
 12
0.0
 22
24.14100029468534
 32
0.0
 13
1.0
 23
1.0
340
0
 70
     7
280
     1
281
    50
282
    50
283
     0
360
0
 71
     2
 91
        5
 14
-0.5
 24
0.5
 14
0.5
 24
0.5
 14
0.5
 24
0.301168139621
 14
-0.5
 24
0.301168139621
 14
-0.5
 24
0.5
  0
TEXT
  5
28A
330
170
100
AcDbEntity
  8
PROFILE
  6
AUSGEZOGEN
 62
     5
420
      255
370
    18
100
AcDbText
 10
243.906704248127
 20
101.422804675745
 30
0.0
 40
3.0
  1
Bed Plate
 41
1.329643109423
  7
Lucida Calligraphy
 72
     5
 11
268.047704542812
 21
101.422804675745
 31
0.0
100
AcDbText
  0
WIPEOUT
  5
28B
330
170
100
AcDbEntity
  8
PROFILE
  6
AUSGEZOGEN
 62
     5
420
      255
370
    18
 92
      308
310
34010000070000000C0000000E000000120000000C00000016000000000000C20C00000014000000010000006C00000007000000040000006E74CC61FB6271409A0CE81506A45A4000000000000000006E74CC61FB627140CE3F1BA8F3305E400000000000000000A1A7FF942E167140CE3F1BA8F3305E4000000000000000
310
00A1A7FF942E1671409A0CE81506A45A4000000000000000000C0000000E000000050000000C00000016000000FF0000C28400000006000000050000006E74CC61FB6271409A0CE81506A45A4000000000000000006E74CC61FB627140CE3F1BA8F3305E400000000000000000A1A7FF942E167140CE3F1BA8F3305E400000
310
000000000000A1A7FF942E1671409A0CE81506A45A4000000000000000006E74CC61FB6271409A0CE81506A45A400000000000000000
100
AcDbWipeout
 90
        0
 10
273.386372564937
 20
106.56287143384
 30
0.0
 11
14.20200018882751
 21
0.0
 31
0.0
 12
0.0
 22
14.20200018882751
 32
0.0
 13
1.0
 23
1.0
340
0
 70
     7
280
     1
281
    50
282
    50
283
     0
360
0
 71
     2
 91
        5
 14
-0.162019438376
 24
0.5
 14
-0.162019438376
 24
-0.5
 14
-0.5
 24
-0.5
 14
-0.5
 24
0.5
 14
-0.162019438376
 24
0.5
  0
TEXT
  5
28C
330
170
100
AcDbEntity
  8
PROFILE
  6
AUSGEZOGEN
 62
     5
420
      255
370
    18
100
AcDbText
 10
277.286372564937
 20
106.56287143384
 30
0.0
 40
3.0
  1
Fence
 50
90.0
 41
1.220417649637
  7
Lucida Calligraphy
 72
     5
 11
277.286372564937
 21
120.764871622668
 31
0.0
100
AcDbText
  0
INSERT
  5
2E5
330
170
100
AcDbEntity
  8
0
100
AcDbBlockReference
  2
*X11
 10
0.0
 20
0.0
 30
0.0
  0
WIPEOUT
  5
2E6
330
170
100
AcDbEntity
  8
PROFILE
  6
AUSGEZOGEN
 62
     1
420
 16711680
370
    18
 92
      308
310
34010000070000000C0000000E000000120000000C00000016000000000000C20C00000014000000010000006C0000000700000004000000E401EF0A53EE6340E97DDF3375A240C00000000000000000C47C432579F46B40E97DDF3375A240C00000000000000000C47C432579F46B40D2FBBEA7700F3BC000000000000000
310
00E401EF0A53EE6340D2FBBEA7700F3BC000000000000000000C0000000E000000010000000C000000160000000000FFC2840000000600000005000000E401EF0A53EE6340E97DDF3375A240C00000000000000000C47C432579F46B40E97DDF3375A240C00000000000000000C47C432579F46B40D2FBBEA7700F3BC00000
310
000000000000E401EF0A53EE6340D2FBBEA7700F3BC00000000000000000E401EF0A53EE6340E97DDF3375A240C00000000000000000
100
AcDbWipeout
 90
        0
 10
159.447637049495
 20
-33.269201740386
 30
0.0
 11
64.19215122699737
 21
0.0
 31
0.0
 12
0.0
 22
64.19215122699737
 32
0.0
 13
1.0
 23
1.0
340
0
 70
     7
280
     1
281
    50
282
    50
283
     0
360
0
 71
     2
 91
        5
 14
-0.5
 24
0.5
 14
0.5
 24
0.5
 14
0.5
 24
0.403276508282
 14
-0.5
 24
0.403276508282
 14
-0.5
 24
0.5
  0
TEXT
  5
2E7
330
170
100
AcDbEntity
  8
PROFILE
  6
AUSGEZOGEN
 62
     1
420
 16711680
370
    18
100
AcDbText
 10
159.447637049495
 20
-32.105035051467
 30
0.0
 40
3.88055562973
  1
CASE 4.000" - 103
 41
1.408309211647
  7
Arial
 72
     5
 11
223.639788276492
 21
-32.105035051467
 31
0.0
100
AcDbText
  0
WIPEOUT
  5
2E8
330
170
100
AcDbEntity
  8
PROFILE
  6
AUSGEZOGEN
 62
     7
420
 16777215
370
    18
 92
      308
310
34010000070000000C0000000E000000120000000C00000016000000000000C20C00000014000000010000006C000000070000000400000090675A8D316D5540EA221CB846D864400000000000000000BA5E47E223317140EA221CB846D864400000000000000000BA5E47E223317140EA221CF0F59E654000000000000000
310
0090675A8D316D5540EA221CF0F59E654000000000000000000C0000000E000000070000000C00000016000000FFFFFFC284000000060000000500000090675A8D316D5540EA221CB846D864400000000000000000BA5E47E223317140EA221CB846D864400000000000000000BA5E47E223317140EA221CF0F59E65400000
310
00000000000090675A8D316D5540EA221CF0F59E6540000000000000000090675A8D316D5540EA221CB846D864400000000000000000
100
AcDbWipeout
 90
        0
 10
85.706149423872
 20
166.75863271232
 30
0.0
 11
189.3651112942729
 21
0.0
 31
0.0
 12
0.0
 22
189.3651112942729
 32
0.0
 13
1.0
 23
1.0
340
0
 70
     7
280
     1
281
    50
282
    50
283
     0
360
0
 71
     2
 91
        5
 14
-0.5
 24
0.5
 14
0.5
 24
0.5
 14
0.5
 24
0.467212075312
 14
-0.5
 24
0.467212075312
 14
-0.5
 24
0.5
  0
TEXT
  5
2E9
330
170
100
AcDbEntity
  8
PROFILE
  6
AUSGEZOGEN
 62
     7
420
 16777215
370
    18
100
AcDbText
 10
85.706149423872
 20
167.922799401239
 30
0.0
 40
3.88055562973
  1
Please Look In The Backout Category for a Universal Backout
 41
1.273279920263
  7
Arial
 72
     5
 11
275.071260718145
 21
167.922799401239
 31
0.0
100
AcDbText
  0
ENDBLK
  5
172
330
170
100
AcDbEntity
  8
0
100
AcDbBlockEnd
  0
BLOCK
  5
1BA
330
1B9
100
AcDbEntity
  8
0
100
AcDbBlockBegin
  2
DimBlk_nNn01
 70
     0
 10
0.0
 20
0.0
 30
0.0
  3
DimBlk_nNn01
  1
DimBlk_nNn01
  0
LWPOLYLINE
  5
1BC
330
1B9
100
AcDbEntity
  8
PROFILE
  6
AUSGEZOGEN
 62
     3
420
    65280
370
    18
100
AcDbPolyline
 90
        3
 70
     1
 43
0.0
 10
233.273447580333
 20
85.367889644455
 10
229.773447580333
 20
86.067889644455
 10
229.773447580333
 20
84.667889644455
  0
LWPOLYLINE
  5
1BD
330
1B9
100
AcDbEntity
  8
PROFILE
  6
AUSGEZOGEN
 62
     3
420
    65280
370
    18
100
AcDbPolyline
 90
        3
 70
     1
 43
0.0
 10
131.673447580333
 20
85.367889644455
 10
135.173447580333
 20
84.667889644455
 10
135.173447580333
 20
86.067889644455
  0
LINE
  5
1BE
330
1B9
100
AcDbEntity
  8
PROFILE
  6
AUSGEZOGEN
 62
     3
420
    65280
370
    18
100
AcDbLine
 10
135.173447580333
 20
85.367889644455
 30
0.0
 11
229.773447580333
 21
85.367889644455
 31
0.0
  0
LINE
  5
1BF
330
1B9
100
AcDbEntity
  8
PROFILE
  6
AUSGEZOGEN
 62
     3
420
    65280
370
    18
100
AcDbLine
 10
131.673447580333
 20
83.367889644455
 30
0.0
 11
131.673447580333
 21
87.367889644455
 31
0.0
  0
LINE
  5
1C0
330
1B9
100
AcDbEntity
  8
PROFILE
  6
AUSGEZOGEN
 62
     3
420
    65280
370
    18
100
AcDbLine
 10
233.273447580333
 20
83.367889644455
 30
0.0
 11
233.273447580333
 21
87.367889644455
 31
0.0
  0
WIPEOUT
  5
1C1
330
1B9
100
AcDbEntity
  8
PROFILE
  6
AUSGEZOGEN
 62
     3
420
    65280
370
    18
 92
      308
310
34010000070000000C0000000E000000120000000C00000016000000000000C20C00000014000000010000006C000000070000000400000002705D21C29D6640FBAACE4D5854554000000000000000009C09173CF1166740FBAACE4D5854554000000000000000009C09173CF1166740611135B4BEBA564000000000000000
310
0002705D21C29D6640611135B4BEBA564000000000000000000C0000000E000000030000000C0000001600000000FF00C284000000060000000500000002705D21C29D6640FBAACE4D5854554000000000000000009C09173CF1166740FBAACE4D5854554000000000000000009C09173CF1166740611135B4BEBA56400000
310
00000000000002705D21C29D6640611135B4BEBA5640000000000000000002705D21C29D6640FBAACE4D585455400000000000000000
100
AcDbWipeout
 90
        0
 10
180.929947550292
 20
85.317889644455
 30
0.0
 11
5.599999999999994
 21
0.0
 31
0.0
 12
0.0
 22
5.599999999999994
 32
0.0
 13
1.0
 23
1.0
340
0
 70
     7
280
     1
281
    50
282
    50
283
     0
360
0
 71
     2
 91
        5
 14
-0.5
 24
0.5
 14
0.1762500086
 24
0.5
 14
0.1762500086
 24
-0.5
 14
-0.5
 24
-0.5
 14
-0.5
 24
0.5
  0
TEXT
  5
1C2
330
1B9
100
AcDbEntity
  8
PROFILE
  6
AUSGEZOGEN
 62
     3
420
    65280
370
    18
100
AcDbText
 10
180.929947550292
 20
86.367889644455
 30
0.0
 40
3.5
  1
4
 41
1.136597960266
  7
Arial
 72
     5
 11
184.016947610374
 21
86.367889644455
 31
0.0
100
AcDbText
  0
ENDBLK
  5
1BB
330
1B9
100
AcDbEntity
  8
0
100
AcDbBlockEnd
  0
BLOCK
  5
1C5
330
1C4
100
AcDbEntity
  8
0
100
AcDbBlockBegin
  2
DimBlk_nNn02
 70
     0
 10
0.0
 20
0.0
 30
0.0
  3
DimBlk_nNn02
  1
DimBlk_nNn02
  0
LWPOLYLINE
  5
1C7
330
1C4
100
AcDbEntity
  8
PROFILE
  6
AUSGEZOGEN
 62
     3
420
    65280
370
    18
100
AcDbPolyline
 90
        3
 70
     1
 43
0.0
 10
107.928340862224
 20
61.093115561191
 10
108.628340862224
 20
64.593115561191
 10
107.228340862224
 20
64.593115561191
  0
LWPOLYLINE
  5
1C8
330
1C4
100
AcDbEntity
  8
PROFILE
  6
AUSGEZOGEN
 62
     3
420
    65280
370
    18
100
AcDbPolyline
 90
        3
 70
     1
 43
0.0
 10
107.928340862224
 20
81.743315561191
 10
107.228340862224
 20
78.243315561191
 10
108.628340862224
 20
78.243315561191
  0
LINE
  5
1C9
330
1C4
100
AcDbEntity
  8
PROFILE
  6
AUSGEZOGEN
 62
     3
420
    65280
370
    18
100
AcDbLine
 10
107.928340862224
 20
78.243315561191
 30
0.0
 11
107.928340862224
 21
64.593115561191
 31
0.0
  0
LINE
  5
1CA
330
1C4
100
AcDbEntity
  8
PROFILE
  6
AUSGEZOGEN
 62
     3
420
    65280
370
    18
100
AcDbLine
 10
109.928340862224
 20
81.743315561191
 30
0.0
 11
105.928340862224
 21
81.743315561191
 31
0.0
  0
LINE
  5
1CB
330
1C4
100
AcDbEntity
  8
PROFILE
  6
AUSGEZOGEN
 62
     3
420
    65280
370
    18
100
AcDbLine
 10
109.928340862224
 20
61.093115561191
 30
0.0
 11
105.928340862224
 21
61.093115561191
 31
0.0
  0
WIPEOUT
  5
1CC
330
1C4
100
AcDbEntity
  8
PROFILE
  6
AUSGEZOGEN
 62
     3
420
    65280
370
    18
 92
      308
310
34010000070000000C0000000E000000120000000C00000016000000000000C20C00000014000000010000006C0000000700000004000000D2E5FD229DFE5A40F598408C46894F400000000000000000D2E5FD229DFE5A40E2B2069DB11D544000000000000000006C7F97BC36985940E2B2069DB11D544000000000000000
310
006C7F97BC36985940F598408C46894F4000000000000000000C0000000E000000030000000C0000001600000000FF00C2840000000600000005000000D2E5FD229DFE5A40F598408C46894F400000000000000000D2E5FD229DFE5A40E2B2069DB11D544000000000000000006C7F97BC36985940E2B2069DB11D54400000
310
0000000000006C7F97BC36985940F598408C46894F400000000000000000D2E5FD229DFE5A40F598408C46894F400000000000000000
100
AcDbWipeout
 90
        0
 10
102.378340862224
 20
63.07246544985
 30
0.0
 11
17.39150021076203
 21
0.0
 31
0.0
 12
0.0
 22
17.39150021076203
 32
0.0
 13
1.0
 23
1.0
340
0
 70
     7
280
     1
281
    50
282
    50
283
     0
360
0
 71
     2
 91
        5
 14
-0.178003626361
 24
0.5
 14
-0.178003626361
 24
-0.5
 14
-0.5
 24
-0.5
 14
-0.5
 24
0.5
 14
-0.178003626361
 24
0.5
  0
TEXT
  5
1CD
330
1C4
100
AcDbEntity
  8
PROFILE
  6
AUSGEZOGEN
 62
     3
420
    65280
370
    18
100
AcDbText
 10
106.928340862224
 20
63.07246544985
 30
0.0
 40
3.5
  1
0.813
 50
90.0
 41
1.36569303082
  7
Arial
 72
     5
 11
106.928340862224
 21
79.763965672533
 31
0.0
100
AcDbText
  0
ENDBLK
  5
1C6
330
1C4
100
AcDbEntity
  8
0
100
AcDbBlockEnd
  0
BLOCK
  5
1D0
330
1CF
100
AcDbEntity
  8
0
100
AcDbBlockBegin
  2
DimBlk_nNn03
 70
     0
 10
0.0
 20
0.0
 30
0.0
  3
DimBlk_nNn03
  1
DimBlk_nNn03
  0
LWPOLYLINE
  5
1D2
330
1CF
100
AcDbEntity
  8
PROFILE
  6
AUSGEZOGEN
 62
     3
420
    65280
370
    18
100
AcDbPolyline
 90
        3
 70
     1
 43
0.0
 10
260.072504253131
 20
76.968115561191
 10
259.372504253131
 20
73.468115561191
 10
260.772504253131
 20
73.468115561191
  0
LWPOLYLINE
  5
1D3
330
1CF
100
AcDbEntity
  8
PROFILE
  6
AUSGEZOGEN
 62
     3
420
    65280
370
    18
100
AcDbPolyline
 90
        3
 70
     1
 43
0.0
 10
260.072504253131
 20
61.093115561191
 10
260.772504253131
 20
64.593115561191
 10
259.372504253131
 20
64.593115561191
  0
LINE
  5
1D4
330
1CF
100
AcDbEntity
  8
PROFILE
  6
AUSGEZOGEN
 62
     3
420
    65280
370
    18
100
AcDbLine
 10
260.072504253131
 20
64.593115561191
 30
0.0
 11
260.072504253131
 21
73.468115561191
 31
0.0
  0
LINE
  5
1D5
330
1CF
100
AcDbEntity
  8
PROFILE
  6
AUSGEZOGEN
 62
     3
420
    65280
370
    18
100
AcDbLine
 10
258.072504253131
 20
61.093115561191
 30
0.0
 11
262.072504253131
 21
61.093115561191
 31
0.0
  0
LINE
  5
1D6
330
1CF
100
AcDbEntity
  8
PROFILE
  6
AUSGEZOGEN
 62
     3
420
    65280
370
    18
100
AcDbLine
 10
258.072504253131
 20
76.968115561191
 30
0.0
 11
262.072504253131
 21
76.968115561191
 31
0.0
  0
WIPEOUT
  5
1D7
330
1CF
100
AcDbEntity
  8
PROFILE
  6
AUSGEZOGEN
 62
     3
420
    65280
370
    18
 92
      308
310
34010000070000000C0000000E000000120000000C00000016000000000000C20C00000014000000010000006C0000000700000004000000170D05C7F5417040F4A1CAABA9574E400000000000000000170D05C7F541704060B7CB2CE38453400000000000000000FAE6D65AB8D06F4060B7CB2CE384534000000000000000
310
00FAE6D65AB8D06F40F4A1CAABA9574E4000000000000000000C0000000E000000030000000C0000001600000000FF00C2840000000600000005000000170D05C7F5417040F4A1CAABA9574E400000000000000000170D05C7F541704060B7CB2CE38453400000000000000000FAE6D65AB8D06F4060B7CB2CE38453400000
310
000000000000FAE6D65AB8D06F40F4A1CAABA9574E400000000000000000170D05C7F5417040F4A1CAABA9574E400000000000000000
100
AcDbWipeout
 90
        0
 10
254.522504253131
 20
60.68486544985
 30
0.0
 11
17.39150021076202
 21
0.0
 31
0.0
 12
0.0
 22
17.39150021076202
 32
0.0
 13
1.0
 23
1.0
340
0
 70
     7
280
     1
281
    50
282
    50
283
     0
360
0
 71
     2
 91
        5
 14
-0.178003626361
 24
0.5
 14
-0.178003626361
 24
-0.5
 14
-0.5
 24
-0.5
 14
-0.5
 24
0.5
 14
-0.178003626361
 24
0.5
  0
TEXT
  5
1D8
330
1CF
100
AcDbEntity
  8
PROFILE
  6
AUSGEZOGEN
 62
     3
420
    65280
370
    18
100
AcDbText
 10
259.072504253131
 20
60.68486544985
 30
0.0
 40
3.5
  1
0.625
 50
90.0
 41
1.36569303082
  7
Arial
 72
     5
 11
259.072504253131
 21
77.376365672533
 31
0.0
100
AcDbText
  0
ENDBLK
  5
1D1
330
1CF
100
AcDbEntity
  8
0
100
AcDbBlockEnd
  0
BLOCK
  5
1DB
330
1DA
100
AcDbEntity
  8
0
100
AcDbBlockBegin
  2
DimBlk_nNn04
 70
     0
 10
0.0
 20
0.0
 30
0.0
  3
DimBlk_nNn04
  1
DimBlk_nNn04
  0
LINE
  5
1DD
330
1DA
100
AcDbEntity
  8
PROFILE
  6
AUSGEZOGEN
 62
     7
420
 16777215
370
    18
100
AcDbLine
 10
135.635847580333
 20
65.055515561191
 30
0.0
 11
133.462487139671
 21
61.742342134556
 31
0.0
  0
LWPOLYLINE
  5
1DE
330
1DA
100
AcDbEntity
  8
PROFILE
  6
AUSGEZOGEN
 62
     7
420
 16777215
370
    18
100
AcDbPolyline
 90
        3
 70
     1
 43
0.0
 10
133.462487139671
 20
61.742342134556
 10
130.957443998907
 20
59.199753126691
 10
132.128058474298
 20
58.431858765464
  0
LINE
  5
1DF
330
1DA
100
AcDbEntity
  8
PROFILE
  6
AUSGEZOGEN
 62
     7
420
 16777215
370
    18
100
AcDbLine
 10
131.542751236603
 20
58.815805946078
 30
0.0
 11
131.341013921357
 21
58.508268043239
 31
0.0
  0
WIPEOUT
  5
1E0
330
1DA
100
AcDbEntity
  8
PROFILE
  6
AUSGEZOGEN
 62
     7
420
 16777215
370
    18
 92
      308
310
34010000070000000C0000000E000000120000000C00000016000000000000C20C00000014000000010000006C00000007000000040000008E7B9DE144F25C40BF41F986A81A4A400000000000000000FAF0419CA9A56040BF41F986A81A4A400000000000000000FAF0419CA9A560408C0EC65375E74C4000000000000000
310
008E7B9DE144F25C408C0EC65375E74C4000000000000000000C0000000E000000070000000C00000016000000FFFFFFC28400000006000000050000008E7B9DE144F25C40BF41F986A81A4A400000000000000000FAF0419CA9A56040BF41F986A81A4A400000000000000000FAF0419CA9A560408C0EC65375E74C400000
310
0000000000008E7B9DE144F25C408C0EC65375E74C4000000000000000008E7B9DE144F25C40BF41F986A81A4A400000000000000000
100
AcDbWipeout
 90
        0
 10
115.785454181472
 20
52.208268043239
 30
0.0
 11
17.39150021076202
 21
0.0
 31
0.0
 12
0.0
 22
17.39150021076202
 32
0.0
 13
1.0
 23
1.0
340
0
 70
     7
280
     1
281
    50
282
    50
283
     0
360
0
 71
     2
 91
        5
 14
-0.5
 24
0.5
 14
0.5
 24
0.5
 14
0.5
 24
0.178003626361
 14
-0.5
 24
0.178003626361
 14
-0.5
 24
0.5
  0
TEXT
  5
1E1
330
1DA
100
AcDbEntity
  8
PROFILE
  6
AUSGEZOGEN
 62
     7
420
 16777215
370
    18
100
AcDbText
 10
115.785454181472
 20
53.258268043239
 30
0.0
 40
3.5
  1
0.156
 41
1.36569303082
  7
Arial
 72
     5
 11
132.476954404155
 21
53.258268043239
 31
0.0
100
AcDbText
  0
LINE
  5
1E2
330
1DA
100
AcDbEntity
  8
PROFILE
  6
AUSGEZOGEN
 62
     7
420
 16777215
370
    18
100
AcDbLine
 10
127.241167337736
 20
52.258268043239
 30
0.0
 11
115.435454187433
 21
52.258268043239
 31
0.0
  0
ENDBLK
  5
1DC
330
1DA
100
AcDbEntity
  8
0
100
AcDbBlockEnd
  0
BLOCK
  5
1E5
330
1E4
100
AcDbEntity
  8
0
100
AcDbBlockBegin
  2
DimBlk_nNn05
 70
     0
 10
0.0
 20
0.0
 30
0.0
  3
DimBlk_nNn05
  1
DimBlk_nNn05
  0
LWPOLYLINE
  5
1E7
330
1E4
100
AcDbEntity
  8
PROFILE
  6
AUSGEZOGEN
 62
     7
420
 16777215
370
    18
100
AcDbPolyline
 90
        3
 70
     1
 43
0.0
 10
157.374740186528
 20
66.062959740086
 10
159.35463917385
 20
63.093111259103
 10
160.344588667511
 20
64.083060752764
  0
LINE
  5
1E8
330
1E4
100
AcDbEntity
  8
PROFILE
  6
AUSGEZOGEN
 62
     7
420
 16777215
370
    18
100
AcDbLine
 10
159.849613920681
 20
63.588086005933
 30
0.0
 11
163.591669394437
 21
59.846030532177
 31
0.0
  0
WIPEOUT
  5
1E9
330
1E4
100
AcDbEntity
  8
PROFILE
  6
AUSGEZOGEN
 62
     7
420
 16777215
370
    18
 92
      308
310
34010000070000000C0000000E000000120000000C00000016000000000000C20C00000014000000010000006C00000007000000040000006E7CC08B981F6340B4281754E4C54A400000000000000000A2AF33B71F4C6540B4281754E4C54A400000000000000000A2AF33B71F4C654081F5E320B1924D4000000000000000
310
006E7CC08B981F634081F5E320B1924D4000000000000000000C0000000E000000070000000C00000016000000FFFFFFC28400000006000000050000006E7CC08B981F6340B4281754E4C54A400000000000000000A2AF33B71F4C6540B4281754E4C54A400000000000000000A2AF33B71F4C654081F5E320B1924D400000
310
0000000000006E7CC08B981F634081F5E320B1924D4000000000000000006E7CC08B981F6340B4281754E4C54A400000000000000000
100
AcDbWipeout
 90
        0
 10
152.987371326398
 20
53.546030532177
 30
0.0
 11
17.39150021076202
 21
0.0
 31
0.0
 12
0.0
 22
17.39150021076202
 32
0.0
 13
1.0
 23
1.0
340
0
 70
     7
280
     1
281
    50
282
    50
283
     0
360
0
 71
     2
 91
        5
 14
-0.5
 24
0.5
 14
0.5
 24
0.5
 14
0.5
 24
0.178003626361
 14
-0.5
 24
0.178003626361
 14
-0.5
 24
0.5
  0
TEXT
  5
1EA
330
1E4
100
AcDbEntity
  8
PROFILE
  6
AUSGEZOGEN
 62
     7
420
 16777215
370
    18
100
AcDbText
 10
152.987371326398
 20
54.596030532177
 30
0.0
 40
3.5
  1
0.472
 41
1.36569303082
  7
Arial
 72
     5
 11
169.678871549081
 21
54.596030532177
 31
0.0
100
AcDbText
  0
LINE
  5
1EB
330
1E4
100
AcDbEntity
  8
PROFILE
  6
AUSGEZOGEN
 62
     7
420
 16777215
370
    18
100
AcDbLine
 10
169.841669394437
 20
53.596030532177
 30
0.0
 11
152.637371332359
 21
53.596030532177
 31
0.0
  0
ENDBLK
  5
1E6
330
1E4
100
AcDbEntity
  8
0
100
AcDbBlockEnd
  0
BLOCK
  5
1EE
330
1ED
100
AcDbEntity
  8
0
100
AcDbBlockBegin
  2
DimBlk_nNn06
 70
     0
 10
0.0
 20
0.0
 30
0.0
  3
DimBlk_nNn06
  1
DimBlk_nNn06
  0
LWPOLYLINE
  5
1F0
330
1ED
100
AcDbEntity
  8
PROFILE
  6
AUSGEZOGEN
 62
     7
420
 16777215
370
    18
100
AcDbPolyline
 90
        3
 70
     1
 43
0.0
 10
173.977304107825
 20
61.723531733465
 10
175.368007260045
 20
65.010771417821
 10
173.996707138968
 20
65.292792654494
  0
LINE
  5
1F1
330
1ED
100
AcDbEntity
  8
PROFILE
  6
AUSGEZOGEN
 62
     7
420
 16777215
370
    18
100
AcDbLine
 10
174.682357199506
 20
65.151782036157
 30
0.0
 11
175.109141331104
 21
67.226977288261
 31
0.0
  0
WIPEOUT
  5
1F2
330
1ED
100
AcDbEntity
  8
PROFILE
  6
AUSGEZOGEN
 62
     7
420
 16777215
370
    18
 92
      308
310
34010000070000000C0000000E000000120000000C00000016000000000000C20C00000014000000010000006C0000000700000004000000D8BFBEBE18306540C14D8C9853FB504000000000000000000CF331EA9F5C6740C14D8C9853FB504000000000000000000CF331EA9F5C674027B4F2FEB961524000000000000000
310
00D8BFBEBE1830654027B4F2FEB961524000000000000000000C0000000E000000070000000C00000016000000FFFFFFC2840000000600000005000000D8BFBEBE18306540C14D8C9853FB504000000000000000000CF331EA9F5C6740C14D8C9853FB504000000000000000000CF331EA9F5C674027B4F2FEB96152400000
310
000000000000D8BFBEBE1830654027B4F2FEB96152400000000000000000D8BFBEBE18306540C14D8C9853FB50400000000000000000
100
AcDbWipeout
 90
        0
 10
169.503020641859
 20
67.926977288261
 30
0.0
 11
17.39150021076202
 21
0.0
 31
0.0
 12
0.0
 22
17.39150021076202
 32
0.0
 13
1.0
 23
1.0
340
0
 70
     7
280
     1
281
    50
282
    50
283
     0
360
0
 71
     2
 91
        5
 14
-0.5
 24
0.5
 14
0.5
 24
0.5
 14
0.5
 24
0.178003626361
 14
-0.5
 24
0.178003626361
 14
-0.5
 24
0.5
  0
TEXT
  5
1F3
330
1ED
100
AcDbEntity
  8
PROFILE
  6
AUSGEZOGEN
 62
     7
420
 16777215
370
    18
100
AcDbText
 10
169.503020641859
 20
68.976977288261
 30
0.0
 40
3.5
  1
0.479
 41
1.36569303082
  7
Arial
 72
     5
 11
186.194520864541
 21
68.976977288261
 31
0.0
100
AcDbText
  0
LINE
  5
1F4
330
1ED
100
AcDbEntity
  8
PROFILE
  6
AUSGEZOGEN
 62
     7
420
 16777215
370
    18
100
AcDbLine
 10
175.263386141743
 20
67.976977288261
 30
0.0
 11
169.153020647819
 21
67.976977288261
 31
0.0
  0
ENDBLK
  5
1EF
330
1ED
100
AcDbEntity
  8
0
100
AcDbBlockEnd
  0
BLOCK
  5
1F7
330
1F6
100
AcDbEntity
  8
0
100
AcDbBlockBegin
  2
DimBlk_nNn07
 70
     0
 10
0.0
 20
0.0
 30
0.0
  3
DimBlk_nNn07
  1
DimBlk_nNn07
  0
LWPOLYLINE
  5
1F9
330
1F6
100
AcDbEntity
  8
PROFILE
  6
AUSGEZOGEN
 62
     7
420
 16777215
370
    18
100
AcDbPolyline
 90
        3
 70
     1
 43
0.0
 10
204.229565542413
 20
73.579323833749
 10
202.767789785278
 20
70.323066528828
 10
204.132640730027
 20
70.011326414923
  0
LINE
  5
1FA
330
1F6
100
AcDbEntity
  8
PROFILE
  6
AUSGEZOGEN
 62
     7
420
 16777215
370
    18
100
AcDbLine
 10
203.450215257652
 20
70.167196471875
 30
0.0
 11
202.735146363481
 21
67.036503910219
 31
0.0
  0
WIPEOUT
  5
1FB
330
1F6
100
AcDbEntity
  8
PROFILE
  6
AUSGEZOGEN
 62
     7
420
 16777215
370
    18
 92
      308
310
34010000070000000C0000000E000000120000000C00000016000000000000C20C00000014000000010000006C000000070000000400000096672EC40AB667401AE297C2455E4E400000000000000000CA9AA1EF91E269401AE297C2455E4E400000000000000000CA9AA1EF91E269407457B2478995504000000000000000
310
0096672EC40AB667407457B2478995504000000000000000000C0000000E000000070000000C00000016000000FFFFFFC284000000060000000500000096672EC40AB667401AE297C2455E4E400000000000000000CA9AA1EF91E269401AE297C2455E4E400000000000000000CA9AA1EF91E269407457B247899550400000
310
00000000000096672EC40AB667407457B24789955040000000000000000096672EC40AB667401AE297C2455E4E400000000000000000
100
AcDbWipeout
 90
        0
 10
189.688814249643
 20
60.736503910219
 30
0.0
 11
17.39150021076202
 21
0.0
 31
0.0
 12
0.0
 22
17.39150021076202
 32
0.0
 13
1.0
 23
1.0
340
0
 70
     7
280
     1
281
    50
282
    50
283
     0
360
0
 71
     2
 91
        5
 14
-0.5
 24
0.5
 14
0.5
 24
0.5
 14
0.5
 24
0.178003626361
 14
-0.5
 24
0.178003626361
 14
-0.5
 24
0.5
  0
TEXT
  5
1FC
330
1F6
100
AcDbEntity
  8
PROFILE
  6
AUSGEZOGEN
 62
     7
420
 16777215
370
    18
100
AcDbText
 10
189.688814249643
 20
61.786503910219
 30
0.0
 40
3.5
  1
0.305
 41
1.36569303082
  7
Arial
 72
     5
 11
206.380314472326
 21
61.786503910219
 31
0.0
100
AcDbText
  0
LINE
  5
1FD
330
1F6
100
AcDbEntity
  8
PROFILE
  6
AUSGEZOGEN
 62
     7
420
 16777215
370
    18
100
AcDbLine
 10
201.307609005356
 20
60.786503910219
 30
0.0
 11
189.338814255604
 21
60.786503910219
 31
0.0
  0
ENDBLK
  5
1F8
330
1F6
100
AcDbEntity
  8
0
100
AcDbBlockEnd
  0
BLOCK
  5
200
330
1FF
100
AcDbEntity
  8
0
100
AcDbBlockBegin
  2
DimBlk_nNn08
 70
     0
 10
0.0
 20
0.0
 30
0.0
  3
DimBlk_nNn08
  1
DimBlk_nNn08
  0
LINE
  5
202
330
1FF
100
AcDbEntity
  8
PROFILE
  6
AUSGEZOGEN
 62
     7
420
 16777215
370
    18
100
AcDbLine
 10
217.710063635322
 20
70.739042018656
 30
0.0
 11
216.740026947217
 21
67.227730408154
 31
0.0
  0
LWPOLYLINE
  5
203
330
1FF
100
AcDbEntity
  8
PROFILE
  6
AUSGEZOGEN
 62
     7
420
 16777215
370
    18
100
AcDbPolyline
 90
        3
 70
     1
 43
0.0
 10
216.740026947217
 20
67.227730408154
 10
215.13330055595
 20
64.040501156342
 10
216.482752298283
 20
63.667700948301
  0
LINE
  5
204
330
1FF
100
AcDbEntity
  8
PROFILE
  6
AUSGEZOGEN
 62
     7
420
 16777215
370
    18
100
AcDbLine
 10
215.808026427117
 20
63.854101052321
 30
0.0
 11
215.624682198845
 21
63.190436754522
 31
0.0
  0
WIPEOUT
  5
205
330
1FF
100
AcDbEntity
  8
PROFILE
  6
AUSGEZOGEN
 62
     7
420
 16777215
370
    18
 92
      308
310
34010000070000000C0000000E000000120000000C00000016000000000000C20C00000014000000010000006C00000007000000040000007C1ACFEDAD566A401AEAE1D4F9714C400000000000000000B04D421935836C401AEAE1D4F9714C400000000000000000B04D421935836C40E7B6AEA1C63E4F4000000000000000
310
007C1ACFEDAD566A40E7B6AEA1C63E4F4000000000000000000C0000000E000000070000000C00000016000000FFFFFFC28400000006000000050000007C1ACFEDAD566A401AEAE1D4F9714C400000000000000000B04D421935836C401AEAE1D4F9714C400000000000000000B04D421935836C40E7B6AEA1C63E4F400000
310
0000000000007C1ACFEDAD566A40E7B6AEA1C63E4F4000000000000000007C1ACFEDAD566A401AEAE1D4F9714C400000000000000000
100
AcDbWipeout
 90
        0
 10
210.708731560229
 20
56.890436754522
 30
0.0
 11
17.39150021076202
 21
0.0
 31
0.0
 12
0.0
 22
17.39150021076202
 32
0.0
 13
1.0
 23
1.0
340
0
 70
     7
280
     1
281
    50
282
    50
283
     0
360
0
 71
     2
 91
        5
 14
-0.5
 24
0.5
 14
0.5
 24
0.5
 14
0.5
 24
0.178003626361
 14
-0.5
 24
0.178003626361
 14
-0.5
 24
0.5
  0
TEXT
  5
206
330
1FF
100
AcDbEntity
  8
PROFILE
  6
AUSGEZOGEN
 62
     7
420
 16777215
370
    18
100
AcDbText
 10
210.708731560229
 20
57.940436754522
 30
0.0
 40
3.5
  1
0.143
 41
1.36569303082
  7
Arial
 72
     5
 11
227.400231782912
 21
57.940436754522
 31
0.0
100
AcDbText
  0
LINE
  5
207
330
1FF
100
AcDbEntity
  8
PROFILE
  6
AUSGEZOGEN
 62
     7
420
 16777215
370
    18
100
AcDbLine
 10
213.898054097106
 20
56.940436754522
 30
0.0
 11
210.35873156619
 21
56.940436754522
 31
0.0
  0
ENDBLK
  5
201
330
1FF
100
AcDbEntity
  8
0
100
AcDbBlockEnd
  0
BLOCK
  5
20A
330
209
100
AcDbEntity
  8
0
100
AcDbBlockBegin
  2
DimBlk_nNn09
 70
     0
 10
0.0
 20
0.0
 30
0.0
  3
DimBlk_nNn09
  1
DimBlk_nNn09
  0
LWPOLYLINE
  5
20C
330
209
100
AcDbEntity
  8
PROFILE
  6
AUSGEZOGEN
 62
     7
420
 16777215
370
    18
100
AcDbPolyline
 90
        3
 70
     1
 43
0.0
 10
228.169819961783
 20
74.39640685901
 10
230.566338506106
 20
71.751279477065
 10
231.399347611137
 20
72.876488715801
  0
LINE
  5
20D
330
209
100
AcDbEntity
  8
PROFILE
  6
AUSGEZOGEN
 62
     7
420
 16777215
370
    18
100
AcDbLine
 10
230.982843058622
 20
72.313884096433
 30
0.0
 11
231.154597296295
 21
72.186731884307
 31
0.0
  0
WIPEOUT
  5
20E
330
209
100
AcDbEntity
  8
PROFILE
  6
AUSGEZOGEN
 62
     7
420
 16777215
370
    18
 92
      308
310
34010000070000000C0000000E000000120000000C00000016000000000000C20C00000014000000010000006C0000000700000004000000607477DC58176D40E290E81EECE550400000000000000000FA0D31EDB0CA6E40E290E81EECE550400000000000000000FA0D31EDB0CA6E4048F74E85524C524000000000000000
310
00607477DC58176D4048F74E85524C524000000000000000000C0000000E000000070000000C00000016000000FFFFFFC2840000000600000005000000607477DC58176D40E290E81EECE550400000000000000000FA0D31EDB0CA6E40E290E81EECE550400000000000000000FA0D31EDB0CA6E4048F74E85524C52400000
310
000000000000607477DC58176D4048F74E85524C52400000000000000000607477DC58176D40E290E81EECE550400000000000000000
100
AcDbWipeout
 90
        0
 10
232.729597314176
 20
67.592536666026
 30
0.0
 11
13.60450016260148
 21
0.0
 31
0.0
 12
0.0
 22
13.60450016260148
 32
0.0
 13
1.0
 23
1.0
340
0
 70
     7
280
     1
281
    50
282
    50
283
     0
360
0
 71
     2
 91
        5
 14
-0.5
 24
0.5
 14
0.5
 24
0.5
 14
0.5
 24
0.088371499646
 14
-0.5
 24
0.088371499646
 14
-0.5
 24
0.5
  0
TEXT
  5
20F
330
209
100
AcDbEntity
  8
PROFILE
  6
AUSGEZOGEN
 62
     7
420
 16777215
370
    18
100
AcDbText
 10
232.729597314176
 20
68.642536666026
 30
0.0
 40
3.5
  1
0.25
 41
1.357511064015
  7
Arial
 72
     5
 11
245.634097488699
 21
68.642536666026
 31
0.0
100
AcDbText
  0
LINE
  5
210
330
209
100
AcDbEntity
  8
PROFILE
  6
AUSGEZOGEN
 62
     7
420
 16777215
370
    18
100
AcDbLine
 10
237.292790037942
 20
67.642536666026
 30
0.0
 11
232.379597320137
 21
67.642536666026
 31
0.0
  0
ENDBLK
  5
20B
330
209
100
AcDbEntity
  8
0
100
AcDbBlockEnd
  0
BLOCK
  5
28E
330
28D
100
AcDbEntity
  8
0
100
AcDbBlockBegin
  2
*X11
 70
     1
 10
0.0
 20
0.0
 30
0.0
  3
*X11
  1
*X11
  0
LINE
  5
290
330
28D
100
AcDbEntity
  8
PROFILE
  6
AUSGEZOGEN
 62
    16
420
  8388608
370
    18
100
AcDbLine
 10
240.960399139509
 20
105.997757943715
 30
0.0
 11
240.65782507012
 21
106.300332013104
 31
0.0
  0
LINE
  5
291
330
28D
100
AcDbEntity
  8
PROFILE
  6
AUSGEZOGEN
 62
    16
420
  8388608
370
    18
100
AcDbLine
 10
240.279017865913
 20
106.679139217311
 30
0.0
 11
240.279017865913
 21
106.679139217311
 31
0.0
  0
LINE
  5
292
330
28D
100
AcDbEntity
  8
PROFILE
  6
AUSGEZOGEN
 62
    16
420
  8388608
370
    18
100
AcDbLine
 10
242.362457489052
 20
106.110928411
 30
0.0
 11
242.362457489052
 21
106.110928411
 31
0.0
  0
LINE
  5
293
330
28D
100
AcDbEntity
  8
PROFILE
  6
AUSGEZOGEN
 62
    16
420
  8388608
370
    18
100
AcDbLine
 10
241.983650284845
 20
106.489735615207
 30
0.0
 11
240.100133139173
 21
108.373252760879
 31
0.0
  0
LINE
  5
294
330
28D
100
AcDbEntity
  8
PROFILE
  6
AUSGEZOGEN
 62
    16
420
  8388608
370
    18
100
AcDbLine
 10
243.990856773166
 20
105.997757943715
 30
0.0
 11
242.173053886948
 21
107.815560829932
 31
0.0
  0
LINE
  5
295
330
28D
100
AcDbEntity
  8
PROFILE
  6
AUSGEZOGEN
 62
    16
420
  8388608
370
    18
100
AcDbLine
 10
241.794246682741
 20
108.194368034139
 30
0.0
 11
241.794246682741
 21
108.194368034139
 31
0.0
  0
LINE
  5
296
330
28D
100
AcDbEntity
  8
PROFILE
  6
AUSGEZOGEN
 62
    16
420
  8388608
370
    18
100
AcDbLine
 10
241.415439478534
 20
108.573175238346
 30
0.0
 11
241.269428201737
 21
108.719186515143
 31
0.0
  0
LINE
  5
297
330
28D
100
AcDbEntity
  8
PROFILE
  6
AUSGEZOGEN
 62
    16
420
  8388608
370
    18
100
AcDbLine
 10
245.506085589994
 20
105.997757943715
 30
0.0
 11
244.256493510087
 21
107.247350023621
 31
0.0
  0
LINE
  5
298
330
28D
100
AcDbEntity
  8
PROFILE
  6
AUSGEZOGEN
 62
    16
420
  8388608
370
    18
100
AcDbLine
 10
243.87768630588
 20
107.626157227829
 30
0.0
 11
243.87768630588
 21
107.626157227829
 31
0.0
  0
LINE
  5
299
330
28D
100
AcDbEntity
  8
PROFILE
  6
AUSGEZOGEN
 62
    16
420
  8388608
370
    18
100
AcDbLine
 10
243.498879101673
 20
108.004964432036
 30
0.0
 11
242.784657018565
 21
108.719186515143
 31
0.0
  0
LINE
  5
29A
330
28D
100
AcDbEntity
  8
PROFILE
  6
AUSGEZOGEN
 62
    16
420
  8388608
370
    18
100
AcDbLine
 10
247.021314406822
 20
105.997757943715
 30
0.0
 11
246.339933133226
 21
106.679139217311
 31
0.0
  0
LINE
  5
29B
330
28D
100
AcDbEntity
  8
PROFILE
  6
AUSGEZOGEN
 62
    16
420
  8388608
370
    18
100
AcDbLine
 10
245.961125929019
 20
107.057946421518
 30
0.0
 11
245.961125929019
 21
107.057946421518
 31
0.0
  0
LINE
  5
29C
330
28D
100
AcDbEntity
  8
PROFILE
  6
AUSGEZOGEN
 62
    16
420
  8388608
370
    18
100
AcDbLine
 10
245.582318724812
 20
107.436753625725
 30
0.0
 11
244.299885835394
 21
108.719186515143
 31
0.0
  0
LINE
  5
29D
330
28D
100
AcDbEntity
  8
PROFILE
  6
AUSGEZOGEN
 62
    16
420
  8388608
370
    18
100
AcDbLine
 10
248.536543223651
 20
105.997757943715
 30
0.0
 11
248.423372756365
 21
106.110928411
 31
0.0
  0
LINE
  5
29E
330
28D
100
AcDbEntity
  8
PROFILE
  6
AUSGEZOGEN
 62
    16
420
  8388608
370
    18
100
AcDbLine
 10
248.044565552158
 20
106.489735615207
 30
0.0
 11
248.044565552158
 21
106.489735615207
 31
0.0
  0
LINE
  5
29F
330
28D
100
AcDbEntity
  8
PROFILE
  6
AUSGEZOGEN
 62
    16
420
  8388608
370
    18
100
AcDbLine
 10
247.665758347951
 20
106.868542819414
 30
0.0
 11
245.815114652222
 21
108.719186515143
 31
0.0
  0
LINE
  5
2A0
330
28D
100
AcDbEntity
  8
PROFILE
  6
AUSGEZOGEN
 62
    16
420
  8388608
370
    18
100
AcDbLine
 10
249.74919797109
 20
106.300332013104
 30
0.0
 11
247.855161950055
 21
108.194368034139
 31
0.0
  0
LINE
  5
2A1
330
28D
100
AcDbEntity
  8
PROFILE
  6
AUSGEZOGEN
 62
    16
420
  8388608
370
    18
100
AcDbLine
 10
247.476354745848
 20
108.573175238346
 30
0.0
 11
247.476354745848
 21
108.573175238346
 31
0.0
  0
LINE
  5
2A2
330
28D
100
AcDbEntity
  8
PROFILE
  6
AUSGEZOGEN
 62
    16
420
  8388608
370
    18
100
AcDbLine
 10
251.567000857307
 20
105.997757943715
 30
0.0
 11
249.938601573194
 21
107.626157227829
 31
0.0
  0
LINE
  5
2A3
330
28D
100
AcDbEntity
  8
PROFILE
  6
AUSGEZOGEN
 62
    16
420
  8388608
370
    18
100
AcDbLine
 10
249.559794368986
 20
108.004964432036
 30
0.0
 11
249.559794368986
 21
108.004964432036
 31
0.0
  0
LINE
  5
2A4
330
28D
100
AcDbEntity
  8
PROFILE
  6
AUSGEZOGEN
 62
    16
420
  8388608
370
    18
100
AcDbLine
 10
249.180987164779
 20
108.383771636243
 30
0.0
 11
248.845572285879
 21
108.719186515143
 31
0.0
  0
LINE
  5
2A5
330
28D
100
AcDbEntity
  8
PROFILE
  6
AUSGEZOGEN
 62
    16
420
  8388608
370
    18
100
AcDbLine
 10
253.082229674136
 20
105.997757943715
 30
0.0
 11
252.022041196332
 21
107.057946421518
 31
0.0
  0
LINE
  5
2A6
330
28D
100
AcDbEntity
  8
PROFILE
  6
AUSGEZOGEN
 62
    16
420
  8388608
370
    18
100
AcDbLine
 10
251.643233992125
 20
107.436753625725
 30
0.0
 11
251.643233992125
 21
107.436753625725
 31
0.0
  0
LINE
  5
2A7
330
28D
100
AcDbEntity
  8
PROFILE
  6
AUSGEZOGEN
 62
    16
420
  8388608
370
    18
100
AcDbLine
 10
251.264426787918
 20
107.815560829932
 30
0.0
 11
250.360801102707
 21
108.719186515143
 31
0.0
  0
LINE
  5
2A8
330
28D
100
AcDbEntity
  8
PROFILE
  6
AUSGEZOGEN
 62
    16
420
  8388608
370
    18
100
AcDbLine
 10
254.597458490964
 20
105.997757943715
 30
0.0
 11
254.105480819471
 21
106.489735615207
 31
0.0
  0
LINE
  5
2A9
330
28D
100
AcDbEntity
  8
PROFILE
  6
AUSGEZOGEN
 62
    16
420
  8388608
370
    18
100
AcDbLine
 10
253.726673615264
 20
106.868542819414
 30
0.0
 11
253.726673615264
 21
106.868542819414
 31
0.0
  0
LINE
  5
2AA
330
28D
100
AcDbEntity
  8
PROFILE
  6
AUSGEZOGEN
 62
    16
420
  8388608
370
    18
100
AcDbLine
 10
253.347866411057
 20
107.247350023621
 30
0.0
 11
251.876029919535
 21
108.719186515143
 31
0.0
  0
LINE
  5
2AB
330
28D
100
AcDbEntity
  8
PROFILE
  6
AUSGEZOGEN
 62
    16
420
  8388608
370
    18
100
AcDbLine
 10
255.810113238403
 20
106.300332013104
 30
0.0
 11
255.810113238403
 21
106.300332013104
 31
0.0
  0
LINE
  5
2AC
330
28D
100
AcDbEntity
  8
PROFILE
  6
AUSGEZOGEN
 62
    16
420
  8388608
370
    18
100
AcDbLine
 10
255.431306034196
 20
106.679139217311
 30
0.0
 11
253.537270013161
 21
108.573175238346
 31
0.0
  0
LINE
  5
2AD
330
28D
100
AcDbEntity
  8
PROFILE
  6
AUSGEZOGEN
 62
    16
420
  8388608
370
    18
100
AcDbLine
 10
257.514745657335
 20
106.110928411
 30
0.0
 11
255.6207096363
 21
108.004964432036
 31
0.0
  0
LINE
  5
2AE
330
28D
100
AcDbEntity
  8
PROFILE
  6
AUSGEZOGEN
 62
    16
420
  8388608
370
    18
100
AcDbLine
 10
255.241902432093
 20
108.383771636243
 30
0.0
 11
255.241902432093
 21
108.383771636243
 31
0.0
  0
LINE
  5
2AF
330
28D
100
AcDbEntity
  8
PROFILE
  6
AUSGEZOGEN
 62
    16
420
  8388608
370
    18
100
AcDbLine
 10
259.143144941449
 20
105.997757943715
 30
0.0
 11
257.704149259439
 21
107.436753625725
 31
0.0
  0
LINE
  5
2B0
330
28D
100
AcDbEntity
  8
PROFILE
  6
AUSGEZOGEN
 62
    16
420
  8388608
370
    18
100
AcDbLine
 10
257.325342055232
 20
107.815560829932
 30
0.0
 11
257.325342055232
 21
107.815560829932
 31
0.0
  0
LINE
  5
2B1
330
28D
100
AcDbEntity
  8
PROFILE
  6
AUSGEZOGEN
 62
    16
420
  8388608
370
    18
100
AcDbLine
 10
256.946534851024
 20
108.194368034139
 30
0.0
 11
256.42171637002
 21
108.719186515143
 31
0.0
  0
LINE
  5
2B2
330
28D
100
AcDbEntity
  8
PROFILE
  6
AUSGEZOGEN
 62
    16
420
  8388608
370
    18
100
AcDbLine
 10
260.658373758277
 20
105.997757943715
 30
0.0
 11
259.787588882578
 21
106.868542819414
 31
0.0
  0
LINE
  5
2B3
330
28D
100
AcDbEntity
  8
PROFILE
  6
AUSGEZOGEN
 62
    16
420
  8388608
370
    18
100
AcDbLine
 10
259.40878167837
 20
107.247350023621
 30
0.0
 11
259.40878167837
 21
107.247350023621
 31
0.0
  0
LINE
  5
2B4
330
28D
100
AcDbEntity
  8
PROFILE
  6
AUSGEZOGEN
 62
    16
420
  8388608
370
    18
100
AcDbLine
 10
259.029974474164
 20
107.626157227829
 30
0.0
 11
257.936945186848
 21
108.719186515143
 31
0.0
  0
LINE
  5
2B5
330
28D
100
AcDbEntity
  8
PROFILE
  6
AUSGEZOGEN
 62
    16
420
  8388608
370
    18
100
AcDbLine
 10
262.173602575105
 20
105.997757943715
 30
0.0
 11
261.871028505717
 21
106.300332013104
 31
0.0
  0
LINE
  5
2B6
330
28D
100
AcDbEntity
  8
PROFILE
  6
AUSGEZOGEN
 62
    16
420
  8388608
370
    18
100
AcDbLine
 10
261.492221301509
 20
106.679139217311
 30
0.0
 11
261.492221301509
 21
106.679139217311
 31
0.0
  0
LINE
  5
2B7
330
28D
100
AcDbEntity
  8
PROFILE
  6
AUSGEZOGEN
 62
    16
420
  8388608
370
    18
100
AcDbLine
 10
261.113414097302
 20
107.057946421518
 30
0.0
 11
259.452174003677
 21
108.719186515143
 31
0.0
  0
LINE
  5
2B8
330
28D
100
AcDbEntity
  8
PROFILE
  6
AUSGEZOGEN
 62
    16
420
  8388608
370
    18
100
AcDbLine
 10
263.575660924648
 20
106.110928411
 30
0.0
 11
263.575660924648
 21
106.110928411
 31
0.0
  0
LINE
  5
2B9
330
28D
100
AcDbEntity
  8
PROFILE
  6
AUSGEZOGEN
 62
    16
420
  8388608
370
    18
100
AcDbLine
 10
263.196853720441
 20
106.489735615207
 30
0.0
 11
261.302817699406
 21
108.383771636243
 31
0.0
  0
LINE
  5
2BA
330
28D
100
AcDbEntity
  8
PROFILE
  6
AUSGEZOGEN
 62
    16
420
  8388608
370
    18
100
AcDbLine
 10
265.204060208762
 20
105.997757943715
 30
0.0
 11
263.386257322545
 21
107.815560829932
 31
0.0
  0
LINE
  5
2BB
330
28D
100
AcDbEntity
  8
PROFILE
  6
AUSGEZOGEN
 62
    16
420
  8388608
370
    18
100
AcDbLine
 10
263.007450118338
 20
108.194368034139
 30
0.0
 11
263.007450118338
 21
108.194368034139
 31
0.0
  0
LINE
  5
2BC
330
28D
100
AcDbEntity
  8
PROFILE
  6
AUSGEZOGEN
 62
    16
420
  8388608
370
    18
100
AcDbLine
 10
262.628642914131
 20
108.573175238346
 30
0.0
 11
262.482631637333
 21
108.719186515143
 31
0.0
  0
LINE
  5
2BD
330
28D
100
AcDbEntity
  8
PROFILE
  6
AUSGEZOGEN
 62
    16
420
  8388608
370
    18
100
AcDbLine
 10
266.71928902559
 20
105.997757943715
 30
0.0
 11
265.469696945684
 21
107.247350023621
 31
0.0
  0
LINE
  5
2BE
330
28D
100
AcDbEntity
  8
PROFILE
  6
AUSGEZOGEN
 62
    16
420
  8388608
370
    18
100
AcDbLine
 10
265.090889741477
 20
107.626157227829
 30
0.0
 11
265.090889741477
 21
107.626157227829
 31
0.0
  0
LINE
  5
2BF
330
28D
100
AcDbEntity
  8
PROFILE
  6
AUSGEZOGEN
 62
    16
420
  8388608
370
    18
100
AcDbLine
 10
264.71208253727
 20
108.004964432036
 30
0.0
 11
263.997860454162
 21
108.719186515143
 31
0.0
  0
LINE
  5
2C0
330
28D
100
AcDbEntity
  8
PROFILE
  6
AUSGEZOGEN
 62
    16
420
  8388608
370
    18
100
AcDbLine
 10
268.234517842419
 20
105.997757943715
 30
0.0
 11
267.553136568823
 21
106.679139217311
 31
0.0
  0
LINE
  5
2C1
330
28D
100
AcDbEntity
  8
PROFILE
  6
AUSGEZOGEN
 62
    16
420
  8388608
370
    18
100
AcDbLine
 10
267.174329364616
 20
107.057946421518
 30
0.0
 11
267.174329364616
 21
107.057946421518
 31
0.0
  0
LINE
  5
2C2
330
28D
100
AcDbEntity
  8
PROFILE
  6
AUSGEZOGEN
 62
    16
420
  8388608
370
    18
100
AcDbLine
 10
266.795522160408
 20
107.436753625725
 30
0.0
 11
265.51308927099
 21
108.719186515143
 31
0.0
  0
LINE
  5
2C3
330
28D
100
AcDbEntity
  8
PROFILE
  6
AUSGEZOGEN
 62
    16
420
  8388608
370
    18
100
AcDbLine
 10
269.749746659247
 20
105.997757943715
 30
0.0
 11
269.636576191962
 21
106.110928411
 31
0.0
  0
LINE
  5
2C4
330
28D
100
AcDbEntity
  8
PROFILE
  6
AUSGEZOGEN
 62
    16
420
  8388608
370
    18
100
AcDbLine
 10
269.257768987755
 20
106.489735615207
 30
0.0
 11
269.257768987755
 21
106.489735615207
 31
0.0
  0
LINE
  5
2C5
330
28D
100
AcDbEntity
  8
PROFILE
  6
AUSGEZOGEN
 62
    16
420
  8388608
370
    18
100
AcDbLine
 10
268.878961783548
 20
106.868542819414
 30
0.0
 11
267.028318087818
 21
108.719186515143
 31
0.0
  0
LINE
  5
2C6
330
28D
100
AcDbEntity
  8
PROFILE
  6
AUSGEZOGEN
 62
    16
420
  8388608
370
    18
100
AcDbLine
 10
270.962401406686
 20
106.300332013104
 30
0.0
 11
269.068365385651
 21
108.194368034139
 31
0.0
  0
LINE
  5
2C7
330
28D
100
AcDbEntity
  8
PROFILE
  6
AUSGEZOGEN
 62
    16
420
  8388608
370
    18
100
AcDbLine
 10
268.689558181444
 20
108.573175238346
 30
0.0
 11
268.689558181444
 21
108.573175238346
 31
0.0
  0
LINE
  5
2C8
330
28D
100
AcDbEntity
  8
PROFILE
  6
AUSGEZOGEN
 62
    16
420
  8388608
370
    18
100
AcDbLine
 10
272.757275996316
 20
106.020686240303
 30
0.0
 11
271.15180500879
 21
107.626157227829
 31
0.0
  0
LINE
  5
2C9
330
28D
100
AcDbEntity
  8
PROFILE
  6
AUSGEZOGEN
 62
    16
420
  8388608
370
    18
100
AcDbLine
 10
270.772997804583
 20
108.004964432036
 30
0.0
 11
270.772997804583
 21
108.004964432036
 31
0.0
  0
LINE
  5
2CA
330
28D
100
AcDbEntity
  8
PROFILE
  6
AUSGEZOGEN
 62
    16
420
  8388608
370
    18
100
AcDbLine
 10
270.394190600376
 20
108.383771636243
 30
0.0
 11
270.035847424887
 21
108.742114811731
 31
0.0
  0
LINE
  5
2CB
330
28D
100
AcDbEntity
  8
PROFILE
  6
AUSGEZOGEN
 62
    16
420
  8388608
370
    18
100
AcDbLine
 10
272.477630223515
 20
107.815560829932
 30
0.0
 11
270.583594202479
 21
109.709596850967
 31
0.0
  0
LINE
  5
2CC
330
28D
100
AcDbEntity
  8
PROFILE
  6
AUSGEZOGEN
 62
    16
420
  8388608
370
    18
100
AcDbLine
 10
270.204786998272
 20
110.088404055175
 30
0.0
 11
270.204786998272
 21
110.088404055175
 31
0.0
  0
LINE
  5
2CD
330
28D
100
AcDbEntity
  8
PROFILE
  6
AUSGEZOGEN
 62
    16
420
  8388608
370
    18
100
AcDbLine
 10
272.757275996316
 20
109.051143873959
 30
0.0
 11
272.667033825618
 21
109.141386044657
 31
0.0
  0
LINE
  5
2CE
330
28D
100
AcDbEntity
  8
PROFILE
  6
AUSGEZOGEN
 62
    16
420
  8388608
370
    18
100
AcDbLine
 10
272.288226621411
 20
109.520193248864
 30
0.0
 11
272.288226621411
 21
109.520193248864
 31
0.0
  0
LINE
  5
2CF
330
28D
100
AcDbEntity
  8
PROFILE
  6
AUSGEZOGEN
 62
    16
420
  8388608
370
    18
100
AcDbLine
 10
271.909419417204
 20
109.899000453071
 30
0.0
 11
270.035847424887
 21
111.772572445388
 31
0.0
  0
LINE
  5
2D0
330
28D
100
AcDbEntity
  8
PROFILE
  6
AUSGEZOGEN
 62
    16
420
  8388608
370
    18
100
AcDbLine
 10
272.757275996316
 20
110.566372690788
 30
0.0
 11
272.098823019308
 21
111.224825667796
 31
0.0
  0
LINE
  5
2D1
330
28D
100
AcDbEntity
  8
PROFILE
  6
AUSGEZOGEN
 62
    16
420
  8388608
370
    18
100
AcDbLine
 10
271.720015815101
 20
111.603632872003
 30
0.0
 11
271.720015815101
 21
111.603632872003
 31
0.0
  0
LINE
  5
2D2
330
28D
100
AcDbEntity
  8
PROFILE
  6
AUSGEZOGEN
 62
    16
420
  8388608
370
    18
100
AcDbLine
 10
271.341208610894
 20
111.98244007621
 30
0.0
 11
270.035847424887
 21
113.287801262216
 31
0.0
  0
LINE
  5
2D3
330
28D
100
AcDbEntity
  8
PROFILE
  6
AUSGEZOGEN
 62
    16
420
  8388608
370
    18
100
AcDbLine
 10
272.757275996316
 20
112.081601507616
 30
0.0
 11
271.530612212997
 21
113.308265290935
 31
0.0
  0
LINE
  5
2D4
330
28D
100
AcDbEntity
  8
PROFILE
  6
AUSGEZOGEN
 62
    16
420
  8388608
370
    18
100
AcDbLine
 10
271.15180500879
 20
113.687072495142
 30
0.0
 11
271.15180500879
 21
113.687072495142
 31
0.0
  0
LINE
  5
2D5
330
28D
100
AcDbEntity
  8
PROFILE
  6
AUSGEZOGEN
 62
    16
420
  8388608
370
    18
100
AcDbLine
 10
270.772997804583
 20
114.065879699349
 30
0.0
 11
270.035847424887
 21
114.803030079045
 31
0.0
  0
LINE
  5
2D6
330
28D
100
AcDbEntity
  8
PROFILE
  6
AUSGEZOGEN
 62
    16
420
  8388608
370
    18
100
AcDbLine
 10
272.757275996316
 20
113.596830324444
 30
0.0
 11
270.962401406686
 21
115.391704914074
 31
0.0
  0
LINE
  5
2D7
330
28D
100
AcDbEntity
  8
PROFILE
  6
AUSGEZOGEN
 62
    16
420
  8388608
370
    18
100
AcDbLine
 10
270.583594202479
 20
115.770512118281
 30
0.0
 11
270.583594202479
 21
115.770512118281
 31
0.0
  0
LINE
  5
2D8
330
28D
100
AcDbEntity
  8
PROFILE
  6
AUSGEZOGEN
 62
    16
420
  8388608
370
    18
100
AcDbLine
 10
270.204786998272
 20
116.149319322488
 30
0.0
 11
270.035847424887
 21
116.318258895873
 31
0.0
  0
LINE
  5
2D9
330
28D
100
AcDbEntity
  8
PROFILE
  6
AUSGEZOGEN
 62
    16
420
  8388608
370
    18
100
AcDbLine
 10
272.667033825618
 20
115.20230131197
 30
0.0
 11
272.667033825618
 21
115.20230131197
 31
0.0
  0
LINE
  5
2DA
330
28D
100
AcDbEntity
  8
PROFILE
  6
AUSGEZOGEN
 62
    16
420
  8388608
370
    18
100
AcDbLine
 10
272.288226621411
 20
115.581108516177
 30
0.0
 11
270.394190600376
 21
117.475144537213
 31
0.0
  0
LINE
  5
2DB
330
28D
100
AcDbEntity
  8
PROFILE
  6
AUSGEZOGEN
 62
    16
420
  8388608
370
    18
100
AcDbLine
 10
272.757275996316
 20
116.627287958101
 30
0.0
 11
272.477630223515
 21
116.906933730902
 31
0.0
  0
LINE
  5
2DC
330
28D
100
AcDbEntity
  8
PROFILE
  6
AUSGEZOGEN
 62
    16
420
  8388608
370
    18
100
AcDbLine
 10
272.098823019308
 20
117.285740935109
 30
0.0
 11
272.098823019308
 21
117.285740935109
 31
0.0
  0
LINE
  5
2DD
330
28D
100
AcDbEntity
  8
PROFILE
  6
AUSGEZOGEN
 62
    16
420
  8388608
370
    18
100
AcDbLine
 10
271.720015815101
 20
117.664548139316
 30
0.0
 11
270.035847424887
 21
119.34871652953
 31
0.0
  0
LINE
  5
2DE
330
28D
100
AcDbEntity
  8
PROFILE
  6
AUSGEZOGEN
 62
    16
420
  8388608
370
    18
100
AcDbLine
 10
272.757275996316
 20
118.142516774929
 30
0.0
 11
271.909419417204
 21
118.990373354041
 31
0.0
  0
LINE
  5
2DF
330
28D
100
AcDbEntity
  8
PROFILE
  6
AUSGEZOGEN
 62
    16
420
  8388608
370
    18
100
AcDbLine
 10
271.530612212997
 20
119.369180558248
 30
0.0
 11
271.530612212997
 21
119.369180558248
 31
0.0
  0
LINE
  5
2E0
330
28D
100
AcDbEntity
  8
PROFILE
  6
AUSGEZOGEN
 62
    16
420
  8388608
370
    18
100
AcDbLine
 10
271.15180500879
 20
119.747987762455
 30
0.0
 11
270.035847424887
 21
120.863945346358
 31
0.0
  0
LINE
  5
2E1
330
28D
100
AcDbEntity
  8
PROFILE
  6
AUSGEZOGEN
 62
    16
420
  8388608
370
    18
100
AcDbLine
 10
272.757275996316
 20
119.657745591758
 30
0.0
 11
271.341208610893
 21
121.07381297718
 31
0.0
  0
LINE
  5
2E2
330
28D
100
AcDbEntity
  8
PROFILE
  6
AUSGEZOGEN
 62
    16
420
  8388608
370
    18
100
AcDbLine
 10
270.962401406686
 20
121.452620181387
 30
0.0
 11
270.962401406686
 21
121.452620181387
 31
0.0
  0
LINE
  5
2E3
330
28D
100
AcDbEntity
  8
PROFILE
  6
AUSGEZOGEN
 62
    16
420
  8388608
370
    18
100
AcDbLine
 10
270.583594202479
 20
121.831427385594
 30
0.0
 11
270.088692215787
 21
122.326329372286
 31
0.0
  0
LINE
  5
2E4
330
28D
100
AcDbEntity
  8
PROFILE
  6
AUSGEZOGEN
 62
    16
420
  8388608
370
    18
100
AcDbLine
 10
272.667033825618
 20
121.263216579283
 30
0.0
 11
271.603921032615
 21
122.326329372286
 31
0.0
  0
ENDBLK
  5
28F
330
28D
100
AcDbEntity
  8
0
100
AcDbBlockEnd
  0
ENDSEC
  0
SECTION
  2
ENTITIES
  0
INSERT
  5
2EA
330
1F
100
AcDbEntity
  8
0
100
AcDbBlockReference
  2
Inch
 10
0.0
 20
0.0
 30
0.0
 41
0.03937007874
 42
0.03937007874
 43
0.03937007874
  0
ENDSEC
  0
SECTION
  2
OBJECTS
  0
DICTIONARY
  5
C
330
0
100
AcDbDictionary
281
     1
  3
ACAD_DETAILVIEWSTYLE
350
328
  3
ACAD_GROUP
350
D
  3
ACAD_LAYOUT
350
1A
  3
ACAD_MATERIAL
350
43
  3
ACAD_MLEADERSTYLE
350
327
  3
ACAD_MLINESTYLE
350
17
  3
ACAD_PLOTSETTINGS
350
19
  3
ACAD_PLOTSTYLENAME
350
E
  3
ACAD_SCALELIST
350
47
  3
ACAD_SECTIONVIEWSTYLE
350
329
  3
ACAD_TABLESTYLE
350
326
  3
ACAD_VISUALSTYLE
350
2A
  3
ACAD_WIPEOUT_VARS
350
6A
  3
AcDbVariableDictionary
350
2ED
  0
DICTIONARY
  5
2EB
330
8
100
AcDbDictionary
280
     1
281
     1
  3
ACAD_XREC_ROUNDTRIP
360
2EC
  0
DICTIONARY
  5
328
102
{ACAD_REACTORS
330
C
102
}
330
C
100
AcDbDictionary
281
     1
  0
DICTIONARY
  5
D
102
{ACAD_REACTORS
330
C
102
}
330
C
100
AcDbDictionary
281
     1
  0
DICTIONARY
  5
1A
102
{ACAD_REACTORS
330
C
102
}
330
C
100
AcDbDictionary
281
     1
  3
Layout1
350
1E
  3
Layout2
350
26
  3
Model
350
22
  0
DICTIONARY
  5
43
102
{ACAD_REACTORS
330
C
102
}
330
C
100
AcDbDictionary
281
     1
  3
ByBlock
350
45
  3
ByLayer
350
44
  3
Global
350
46
  0
DICTIONARY
  5
327
102
{ACAD_REACTORS
330
C
102
}
330
C
100
AcDbDictionary
281
     1
  0
DICTIONARY
  5
17
102
{ACAD_REACTORS
330
C
102
}
330
C
100
AcDbDictionary
281
     1
  3
Standard
350
18
  0
DICTIONARY
  5
19
102
{ACAD_REACTORS
330
C
102
}
330
C
100
AcDbDictionary
281
     1
  0
ACDBDICTIONARYWDFLT
  5
E
102
{ACAD_REACTORS
330
C
102
}
330
C
100
AcDbDictionary
281
     1
  3
Normal
350
F
100
AcDbDictionaryWithDefault
340
F
  0
DICTIONARY
  5
47
102
{ACAD_REACTORS
330
C
102
}
330
C
100
AcDbDictionary
281
     1
  3
A0
350
48
  3
A1
350
49
  3
A2
350
4A
  3
A3
350
4B
  3
A4
350
4C
  3
A5
350
4D
  3
A6
350
4E
  3
A7
350
4F
  3
A8
350
50
  3
A9
350
51
  3
B0
350
52
  3
B1
350
53
  3
B2
350
54
  3
B3
350
55
  3
B4
350
56
  3
B5
350
57
  3
B6
350
58
  3
B7
350
59
  3
B8
350
5A
  3
B9
350
5B
  3
C0
350
5C
  3
C1
350
5D
  3
C2
350
5E
  3
C3
350
5F
  3
C4
350
60
  3
C5
350
61
  3
C6
350
62
  3
C7
350
63
  3
C8
350
64
  3
C9
350
65
  3
D0
350
66
  3
D1
350
67
  3
D2
350
68
  0
DICTIONARY
  5
329
102
{ACAD_REACTORS
330
C
102
}
330
C
100
AcDbDictionary
281
     1
  0
DICTIONARY
  5
326
102
{ACAD_REACTORS
330
C
102
}
330
C
100
AcDbDictionary
281
     1
  0
DICTIONARY
  5
2A
102
{ACAD_REACTORS
330
C
102
}
330
C
100
AcDbDictionary
281
     1
  3
2dWireframe
350
2F
  3
Basic
350
32
  3
Brighten
350
36
  3
ColorChange
350
3A
  3
Conceptual
350
34
  3
Dim
350
35
  3
EdgeColorOff
350
3D
  3
Facepattern
350
39
  3
Flat
350
2B
  3
FlatWithEdges
350
2C
  3
Gouraud
350
2D
  3
GouraudWithEdges
350
2E
  3
Hidden
350
31
  3
JitterOff
350
3B
  3
Linepattern
350
38
  3
OverhangOff
350
3C
  3
Realistic
350
33
  3
Shaded
350
42
  3
Shaded with edges
350
41
  3
Shades of Gray
350
3E
  3
Sketchy
350
3F
  3
Thicken
350
37
  3
Wireframe
350
30
  3
X-Ray
350
40
  0
WIPEOUTVARIABLES
  5
6A
102
{ACAD_REACTORS
330
C
102
}
330
C
100
AcDbWipeoutVariables
 70
     0
  0
DICTIONARY
  5
2ED
102
{ACAD_REACTORS
330
C
102
}
330
C
100
AcDbDictionary
281
     1
  3
CANNOSCALE
350
2EE
  3
MSLTSCALE
350
2EF
  0
XRECORD
  5
2EC
102
{ACAD_REACTORS
330
2EB
102
}
330
2EB
100
AcDbXrecord
280
     1
102
VTR_0.000_0.000_1.000_1.000_GRIDDISPLAY
 70
     3
102
VTR_0.000_0.000_1.000_1.000_GRIDMAJOR
 70
     5
102
VTR_0.000_0.000_1.000_1.000_DEFAULTLIGHTING
280
     1
102
VTR_0.000_0.000_1.000_1.000_DEFAULTLIGHTINGTYPE
 70
     1
102
VTR_0.000_0.000_1.000_1.000_BRIGHTNESS
141
0.0
102
VTR_0.000_0.000_1.000_1.000_CONTRAST
142
0.0
  0
LAYOUT
  5
1E
102
{ACAD_REACTORS
330
1A
102
}
330
1A
100
AcDbPlotSettings
  1

  2
none_device
  4

  6

 40
0.0
 41
0.0
 42
0.0
 43
0.0
 44
0.0
 45
0.0
 46
0.0
 47
0.0
 48
0.0
 49
0.0
140
0.0
141
0.0
142
1.0
143
1.0
 70
   688
 72
     1
 73
     0
 74
     5
  7

 75
    16
 76
     0
 77
     2
 78
   300
147
1.0
148
0.0
149
0.0
100
AcDbLayout
  1
Layout1
 70
     1
 71
     1
 10
0.0
 20
0.0
 11
420.0
 21
297.0
 12
0.0
 22
0.0
 32
0.0
 14
1.000000000000E+20
 24
1.000000000000E+20
 34
1.000000000000E+20
 15
-1.000000000000E+20
 25
-1.000000000000E+20
 35
-1.000000000000E+20
146
0.0
 13
0.0
 23
0.0
 33
0.0
 16
1.0
 26
0.0
 36
0.0
 17
0.0
 27
1.0
 37
0.0
 76
     0
330
1B
  0
LAYOUT
  5
26
102
{ACAD_REACTORS
330
1A
102
}
330
1A
100
AcDbPlotSettings
  1

  2
none_device
  4

  6

 40
0.0
 41
0.0
 42
0.0
 43
0.0
 44
0.0
 45
0.0
 46
0.0
 47
0.0
 48
0.0
 49
0.0
140
0.0
141
0.0
142
1.0
143
1.0
 70
   688
 72
     1
 73
     0
 74
     5
  7

 75
    16
 76
     0
 77
     2
 78
   300
147
1.0
148
0.0
149
0.0
100
AcDbLayout
  1
Layout2
 70
     1
 71
     2
 10
0.0
 20
0.0
 11
0.0
 21
0.0
 12
0.0
 22
0.0
 32
0.0
 14
0.0
 24
0.0
 34
0.0
 15
0.0
 25
0.0
 35
0.0
146
0.0
 13
0.0
 23
0.0
 33
0.0
 16
1.0
 26
0.0
 36
0.0
 17
0.0
 27
1.0
 37
0.0
 76
     0
330
23
  0
LAYOUT
  5
22
102
{ACAD_REACTORS
330
1A
102
}
330
1A
100
AcDbPlotSettings
  1

  2
none_device
  4
Letter_(8.50_x_11.00_Inches)
  6

 40
6.35
 41
6.35
 42
6.35000508
 43
6.35000508
 44
215.9
 45
279.4
 46
0.0
 47
0.0
 48
0.0
 49
0.0
140
0.0
141
0.0
142
1.0
143
1.0
 70
  1712
 72
     1
 73
     0
 74
     0
  7

 75
     0
 76
     0
 77
     2
 78
   300
147
1.0
148
0.0
149
0.0
100
AcDbLayout
  1
Model
 70
     1
 71
     0
 10
0.0
 20
0.0
 11
420.0
 21
297.0
 12
0.0
 22
0.0
 32
0.0
 14
-6.531477366156
 24
-2.314439994737
 34
0.0
 15
20.621779629255
 25
9.029860005263
 35
0.0
146
0.0
 13
0.0
 23
0.0
 33
0.0
 16
1.0
 26
0.0
 36
0.0
 17
0.0
 27
1.0
 37
0.0
 76
     0
330
1F
331
29
  0
MATERIAL
  5
45
102
{ACAD_REACTORS
330
43
102
}
102
{ACAD_XDICTIONARY
360
322
102
}
330
43
100
AcDbMaterial
  1
ByBlock
  0
MATERIAL
  5
44
102
{ACAD_REACTORS
330
43
102
}
102
{ACAD_XDICTIONARY
360
320
102
}
330
43
100
AcDbMaterial
  1
ByLayer
  0
MATERIAL
  5
46
102
{ACAD_REACTORS
330
43
102
}
102
{ACAD_XDICTIONARY
360
324
102
}
330
43
100
AcDbMaterial
  1
Global
  0
MLINESTYLE
  5
18
102
{ACAD_REACTORS
330
17
102
}
330
17
100
AcDbMlineStyle
  2
Standard
 70
     0
  3

 62
   256
 51
90.0
 52
90.0
 71
     2
 49
0.5
 62
   256
  6
BYLAYER
 49
-0.5
 62
   256
  6
BYLAYER
  0
ACDBPLACEHOLDER
  5
F
102
{ACAD_REACTORS
330
E
102
}
330
E
  0
SCALE
  5
48
102
{ACAD_REACTORS
330
47
102
}
330
47
100
AcDbScale
 70
     0
300
1:1
140
1.0
141
1.0
290
     1
  0
SCALE
  5
49
102
{ACAD_REACTORS
330
47
102
}
330
47
100
AcDbScale
 70
     0
300
1:2
140
1.0
141
2.0
290
     0
  0
SCALE
  5
4A
102
{ACAD_REACTORS
330
47
102
}
330
47
100
AcDbScale
 70
     0
300
1:4
140
1.0
141
4.0
290
     0
  0
SCALE
  5
4B
102
{ACAD_REACTORS
330
47
102
}
330
47
100
AcDbScale
 70
     0
300
1:5
140
1.0
141
5.0
290
     0
  0
SCALE
  5
4C
102
{ACAD_REACTORS
330
47
102
}
330
47
100
AcDbScale
 70
     0
300
1:8
140
1.0
141
8.0
290
     0
  0
SCALE
  5
4D
102
{ACAD_REACTORS
330
47
102
}
330
47
100
AcDbScale
 70
     0
300
1:10
140
1.0
141
10.0
290
     0
  0
SCALE
  5
4E
102
{ACAD_REACTORS
330
47
102
}
330
47
100
AcDbScale
 70
     0
300
1:16
140
1.0
141
16.0
290
     0
  0
SCALE
  5
4F
102
{ACAD_REACTORS
330
47
102
}
330
47
100
AcDbScale
 70
     0
300
1:20
140
1.0
141
20.0
290
     0
  0
SCALE
  5
50
102
{ACAD_REACTORS
330
47
102
}
330
47
100
AcDbScale
 70
     0
300
1:30
140
1.0
141
30.0
290
     0
  0
SCALE
  5
51
102
{ACAD_REACTORS
330
47
102
}
330
47
100
AcDbScale
 70
     0
300
1:40
140
1.0
141
40.0
290
     0
  0
SCALE
  5
52
102
{ACAD_REACTORS
330
47
102
}
330
47
100
AcDbScale
 70
     0
300
1:50
140
1.0
141
50.0
290
     0
  0
SCALE
  5
53
102
{ACAD_REACTORS
330
47
102
}
330
47
100
AcDbScale
 70
     0
300
1:100
140
1.0
141
100.0
290
     0
  0
SCALE
  5
54
102
{ACAD_REACTORS
330
47
102
}
330
47
100
AcDbScale
 70
     0
300
2:1
140
2.0
141
1.0
290
     0
  0
SCALE
  5
55
102
{ACAD_REACTORS
330
47
102
}
330
47
100
AcDbScale
 70
     0
300
4:1
140
4.0
141
1.0
290
     0
  0
SCALE
  5
56
102
{ACAD_REACTORS
330
47
102
}
330
47
100
AcDbScale
 70
     0
300
8:1
140
8.0
141
1.0
290
     0
  0
SCALE
  5
57
102
{ACAD_REACTORS
330
47
102
}
330
47
100
AcDbScale
 70
     0
300
10:1
140
10.0
141
1.0
290
     0
  0
SCALE
  5
58
102
{ACAD_REACTORS
330
47
102
}
330
47
100
AcDbScale
 70
     0
300
100:1
140
100.0
141
1.0
290
     0
  0
SCALE
  5
59
102
{ACAD_REACTORS
330
47
102
}
330
47
100
AcDbScale
 70
     0
300
1/128" = 1'-0"
140
0.0078125
141
12.0
290
     0
  0
SCALE
  5
5A
102
{ACAD_REACTORS
330
47
102
}
330
47
100
AcDbScale
 70
     0
300
1/64" = 1'-0"
140
0.015625
141
12.0
290
     0
  0
SCALE
  5
5B
102
{ACAD_REACTORS
330
47
102
}
330
47
100
AcDbScale
 70
     0
300
1/32" = 1'-0"
140
0.03125
141
12.0
290
     0
  0
SCALE
  5
5C
102
{ACAD_REACTORS
330
47
102
}
330
47
100
AcDbScale
 70
     0
300
1/16" = 1'-0"
140
0.0625
141
12.0
290
     0
  0
SCALE
  5
5D
102
{ACAD_REACTORS
330
47
102
}
330
47
100
AcDbScale
 70
     0
300
3/32" = 1'-0"
140
0.09375
141
12.0
290
     0
  0
SCALE
  5
5E
102
{ACAD_REACTORS
330
47
102
}
330
47
100
AcDbScale
 70
     0
300
1/8" = 1'-0"
140
0.125
141
12.0
290
     0
  0
SCALE
  5
5F
102
{ACAD_REACTORS
330
47
102
}
330
47
100
AcDbScale
 70
     0
300
3/16" = 1'-0"
140
0.1875
141
12.0
290
     0
  0
SCALE
  5
60
102
{ACAD_REACTORS
330
47
102
}
330
47
100
AcDbScale
 70
     0
300
1/4" = 1'-0"
140
0.25
141
12.0
290
     0
  0
SCALE
  5
61
102
{ACAD_REACTORS
330
47
102
}
330
47
100
AcDbScale
 70
     0
300
3/8" = 1'-0"
140
0.375
141
12.0
290
     0
  0
SCALE
  5
62
102
{ACAD_REACTORS
330
47
102
}
330
47
100
AcDbScale
 70
     0
300
1/2" = 1'-0"
140
0.5
141
12.0
290
     0
  0
SCALE
  5
63
102
{ACAD_REACTORS
330
47
102
}
330
47
100
AcDbScale
 70
     0
300
3/4" = 1'-0"
140
0.75
141
12.0
290
     0
  0
SCALE
  5
64
102
{ACAD_REACTORS
330
47
102
}
330
47
100
AcDbScale
 70
     0
300
1" = 1'-0"
140
1.0
141
12.0
290
     0
  0
SCALE
  5
65
102
{ACAD_REACTORS
330
47
102
}
330
47
100
AcDbScale
 70
     0
300
1-1/2" = 1'-0"
140
1.5
141
12.0
290
     0
  0
SCALE
  5
66
102
{ACAD_REACTORS
330
47
102
}
330
47
100
AcDbScale
 70
     0
300
3" = 1'-0"
140
3.0
141
12.0
290
     0
  0
SCALE
  5
67
102
{ACAD_REACTORS
330
47
102
}
330
47
100
AcDbScale
 70
     0
300
6" = 1'-0"
140
6.0
141
12.0
290
     0
  0
SCALE
  5
68
102
{ACAD_REACTORS
330
47
102
}
330
47
100
AcDbScale
 70
     0
300
1'-0" = 1'-0"
140
12.0
141
12.0
290
     0
  0
VISUALSTYLE
  5
2F
102
{ACAD_REACTORS
330
2A
102
}
102
{ACAD_XDICTIONARY
360
2F8
102
}
330
2A
100
AcDbVisualStyle
  2
2dWireframe
 70
     4
 71
     0
 72
     2
 73
     0
 90
        0
 40
0.6
 41
30.0
 62
     5
 63
     7
421
 16777215
 74
     1
 91
        4
 64
     7
 65
   257
 75
     1
175
     1
 42
1.0
 92
        0
 66
   257
 43
1.0
 76
     1
 77
     6
 78
     2
 67
     7
 79
     5
170
     0
171
     0
290
     0
174
     0
 93
        1
 44
0.0
173
     0
291
     0
 45
0.0
1001
ACAD
1000
AcDbSavedByObjectVersion
1070
     0
  0
VISUALSTYLE
  5
32
102
{ACAD_REACTORS
330
2A
102
}
102
{ACAD_XDICTIONARY
360
2FE
102
}
330
2A
100
AcDbVisualStyle
  2
Basic
 70
     7
 71
     1
 72
     0
 73
     1
 90
        0
 40
0.6
 41
30.0
 62
     5
 63
     7
421
 16777215
 74
     0
 91
        4
 64
     7
 65
   257
 75
     1
175
     1
 42
1.0
 92
        8
 66
     7
 43
1.0
 76
     1
 77
     6
 78
     2
 67
     7
 79
     5
170
     0
171
     0
290
     0
174
     0
 93
        1
 44
0.0
173
     0
291
     1
 45
0.0
1001
ACAD
1000
AcDbSavedByObjectVersion
1070
     0
  0
VISUALSTYLE
  5
36
102
{ACAD_REACTORS
330
2A
102
}
102
{ACAD_XDICTIONARY
360
306
102
}
330
2A
100
AcDbVisualStyle
  2
Brighten
 70
    12
 71
     2
 72
     2
 73
     0
 90
        0
 40
0.6
 41
30.0
 62
     5
 63
     7
421
 16777215
 74
     1
 91
        4
 64
     7
 65
   257
 75
     1
175
     1
 42
1.0
 92
        8
 66
     7
 43
1.0
 76
     1
 77
     6
 78
     2
 67
     7
 79
     5
170
     0
171
     0
290
     0
174
     0
 93
        1
 44
50.0
173
     0
291
     1
 45
0.0
1001
ACAD
1000
AcDbSavedByObjectVersion
1070
     0
  0
VISUALSTYLE
  5
3A
102
{ACAD_REACTORS
330
2A
102
}
102
{ACAD_XDICTIONARY
360
30E
102
}
330
2A
100
AcDbVisualStyle
  2
ColorChange
 70
    16
 71
     2
 72
     2
 73
     3
 90
        0
 40
0.6
 41
30.0
 62
     5
 63
     8
421
  8421504
 74
     1
 91
        4
 64
     7
 65
   257
 75
     1
175
     1
 42
1.0
 92
        8
 66
     8
424
  8421504
 43
1.0
 76
     1
 77
     6
 78
     2
 67
     7
 79
     5
170
     0
171
     0
290
     0
174
     0
 93
        1
 44
0.0
173
     0
291
     1
 45
0.0
1001
ACAD
1000
AcDbSavedByObjectVersion
1070
     0
  0
VISUALSTYLE
  5
34
102
{ACAD_REACTORS
330
2A
102
}
102
{ACAD_XDICTIONARY
360
302
102
}
330
2A
100
AcDbVisualStyle
  2
Conceptual
 70
     9
 71
     3
 72
     2
 73
     0
 90
        0
 40
0.6
 41
30.0
 62
     5
 63
     7
421
 16777215
 74
     2
 91
        2
 64
     7
 65
   257
 75
     1
175
     1
 42
179.0
 92
        8
 66
     7
 43
1.0
 76
     1
 77
     6
 78
     2
 67
     7
 79
     3
170
     0
171
     0
290
     0
174
     0
 93
        1
 44
0.0
173
     0
291
     0
 45
0.0
1001
ACAD
1000
AcDbSavedByObjectVersion
1070
     0
  0
VISUALSTYLE
  5
35
102
{ACAD_REACTORS
330
2A
102
}
102
{ACAD_XDICTIONARY
360
304
102
}
330
2A
100
AcDbVisualStyle
  2
Dim
 70
    11
 71
     2
 72
     2
 73
     0
 90
        0
 40
0.6
 41
30.0
 62
     5
 63
     7
421
 16777215
 74
     1
 91
        4
 64
     7
 65
   257
 75
     1
175
     1
 42
1.0
 92
        8
 66
     7
 43
1.0
 76
     1
 77
     6
 78
     2
 67
     7
 79
     5
170
     0
171
     0
290
     0
174
     0
 93
        1
 44
-50.0
173
     0
291
     1
 45
0.0
1001
ACAD
1000
AcDbSavedByObjectVersion
1070
     0
  0
VISUALSTYLE
  5
3D
102
{ACAD_REACTORS
330
2A
102
}
102
{ACAD_XDICTIONARY
360
314
102
}
330
2A
100
AcDbVisualStyle
  2
EdgeColorOff
 70
    22
 71
     2
 72
     2
 73
     0
 90
        0
 40
0.6
 41
30.0
 62
     5
 63
     7
421
 16777215
 74
     1
 91
        4
 64
     7
 65
   257
 75
     1
175
     1
 42
1.0
 92
        8
 66
     7
 43
1.0
 76
     1
 77
     6
 78
     2
 67
     7
 79
     5
170
     0
171
     0
290
     0
174
     0
 93
        1
 44
0.0
173
     0
291
     1
 45
0.0
1001
ACAD
1000
AcDbSavedByObjectVersion
1070
     0
  0
VISUALSTYLE
  5
39
102
{ACAD_REACTORS
330
2A
102
}
102
{ACAD_XDICTIONARY
360
30C
102
}
330
2A
100
AcDbVisualStyle
  2
Facepattern
 70
    15
 71
     2
 72
     2
 73
     0
 90
        0
 40
0.6
 41
30.0
 62
     5
 63
     7
421
 16777215
 74
     1
 91
        4
 64
     7
 65
   257
 75
     1
175
     1
 42
1.0
 92
        8
 66
     7
 43
1.0
 76
     1
 77
     6
 78
     2
 67
     7
 79
     5
170
     0
171
     0
290
     0
174
     0
 93
        1
 44
0.0
173
     0
291
     1
 45
0.0
1001
ACAD
1000
AcDbSavedByObjectVersion
1070
     0
  0
VISUALSTYLE
  5
2B
102
{ACAD_REACTORS
330
2A
102
}
102
{ACAD_XDICTIONARY
360
2F0
102
}
330
2A
100
AcDbVisualStyle
  2
Flat
 70
     0
 71
     2
 72
     1
 73
     1
 90
        2
 40
0.6
 41
30.0
 62
     5
 63
     7
421
 16777215
 74
     0
 91
        0
 64
     7
 65
   257
 75
     1
175
     1
 42
1.0
 92
        8
 66
     7
 43
1.0
 76
     1
 77
     6
 78
     2
 67
     7
 79
     5
170
     0
171
     0
290
     0
174
     0
 93
       13
 44
0.0
173
     0
291
     1
 45
0.0
1001
ACAD
1000
AcDbSavedByObjectVersion
1070
     0
  0
VISUALSTYLE
  5
2C
102
{ACAD_REACTORS
330
2A
102
}
102
{ACAD_XDICTIONARY
360
2F2
102
}
330
2A
100
AcDbVisualStyle
  2
FlatWithEdges
 70
     1
 71
     2
 72
     1
 73
     1
 90
        2
 40
0.6
 41
30.0
 62
     5
 63
     7
421
 16777215
 74
     1
 91
        0
 64
     7
 65
   257
 75
     1
175
     1
 42
1.0
 92
        0
 66
   257
 43
1.0
 76
     1
 77
     6
 78
     2
 67
     7
 79
     5
170
     0
171
     0
290
     0
174
     0
 93
       13
 44
0.0
173
     0
291
     1
 45
0.0
1001
ACAD
1000
AcDbSavedByObjectVersion
1070
     0
  0
VISUALSTYLE
  5
2D
102
{ACAD_REACTORS
330
2A
102
}
102
{ACAD_XDICTIONARY
360
2F4
102
}
330
2A
100
AcDbVisualStyle
  2
Gouraud
 70
     2
 71
     2
 72
     2
 73
     1
 90
        2
 40
0.6
 41
30.0
 62
     5
 63
     7
421
 16777215
 74
     0
 91
        0
 64
     7
 65
   257
 75
     1
175
     1
 42
1.0
 92
        0
 66
     7
 43
1.0
 76
     1
 77
     6
 78
     2
 67
     7
 79
     5
170
     0
171
     0
290
     0
174
     0
 93
       13
 44
0.0
173
     0
291
     1
 45
0.0
1001
ACAD
1000
AcDbSavedByObjectVersion
1070
     0
  0
VISUALSTYLE
  5
2E
102
{ACAD_REACTORS
330
2A
102
}
102
{ACAD_XDICTIONARY
360
2F6
102
}
330
2A
100
AcDbVisualStyle
  2
GouraudWithEdges
 70
     3
 71
     2
 72
     2
 73
     1
 90
        2
 40
0.6
 41
30.0
 62
     5
 63
     7
421
 16777215
 74
     1
 91
        0
 64
     7
 65
   257
 75
     1
175
     1
 42
1.0
 92
        0
 66
   257
 43
1.0
 76
     1
 77
     6
 78
     2
 67
     7
 79
     5
170
     0
171
     0
290
     0
174
     0
 93
       13
 44
0.0
173
     0
291
     1
 45
0.0
1001
ACAD
1000
AcDbSavedByObjectVersion
1070
     0
  0
VISUALSTYLE
  5
31
102
{ACAD_REACTORS
330
2A
102
}
102
{ACAD_XDICTIONARY
360
2FC
102
}
330
2A
100
AcDbVisualStyle
  2
Hidden
 70
     6
 71
     1
 72
     2
 73
     2
 90
        0
 40
0.6
 41
30.0
 62
     5
 63
     7
421
 16777215
 74
     2
 91
        2
 64
     7
 65
   257
 75
     2
175
     1
 42
40.0
 92
        0
 66
   257
 43
1.0
 76
     1
 77
     6
 78
     2
 67
     7
 79
     3
170
     0
171
     0
290
     0
174
     0
 93
        1
 44
0.0
173
     0
291
     0
 45
0.0
1001
ACAD
1000
AcDbSavedByObjectVersion
1070
     0
  0
VISUALSTYLE
  5
3B
102
{ACAD_REACTORS
330
2A
102
}
102
{ACAD_XDICTIONARY
360
310
102
}
330
2A
100
AcDbVisualStyle
  2
JitterOff
 70
    20
 71
     2
 72
     2
 73
     0
 90
        0
 40
0.6
 41
30.0
 62
     5
 63
     7
421
 16777215
 74
     1
 91
        4
 64
     7
 65
   257
 75
     1
175
     1
 42
1.0
 92
       10
 66
     7
 43
1.0
 76
     1
 77
     6
 78
     2
 67
     7
 79
     5
170
     0
171
     0
290
     0
174
     0
 93
        1
 44
0.0
173
     0
291
     1
 45
0.0
1001
ACAD
1000
AcDbSavedByObjectVersion
1070
     0
  0
VISUALSTYLE
  5
38
102
{ACAD_REACTORS
330
2A
102
}
102
{ACAD_XDICTIONARY
360
30A
102
}
330
2A
100
AcDbVisualStyle
  2
Linepattern
 70
    14
 71
     2
 72
     2
 73
     0
 90
        0
 40
0.6
 41
30.0
 62
     5
 63
     7
421
 16777215
 74
     1
 91
        4
 64
     7
 65
   257
 75
     7
175
     7
 42
1.0
 92
        8
 66
     7
 43
1.0
 76
     1
 77
     6
 78
     2
 67
     7
 79
     5
170
     0
171
     0
290
     0
174
     0
 93
        1
 44
0.0
173
     0
291
     1
 45
0.0
1001
ACAD
1000
AcDbSavedByObjectVersion
1070
     0
  0
VISUALSTYLE
  5
3C
102
{ACAD_REACTORS
330
2A
102
}
102
{ACAD_XDICTIONARY
360
312
102
}
330
2A
100
AcDbVisualStyle
  2
OverhangOff
 70
    21
 71
     2
 72
     2
 73
     0
 90
        0
 40
0.6
 41
30.0
 62
     5
 63
     7
421
 16777215
 74
     1
 91
        4
 64
     7
 65
   257
 75
     1
175
     1
 42
1.0
 92
        9
 66
     7
 43
1.0
 76
     1
 77
     6
 78
     2
 67
     7
 79
     5
170
     0
171
     0
290
     0
174
     0
 93
        1
 44
0.0
173
     0
291
     1
 45
0.0
1001
ACAD
1000
AcDbSavedByObjectVersion
1070
     0
  0
VISUALSTYLE
  5
33
102
{ACAD_REACTORS
330
2A
102
}
102
{ACAD_XDICTIONARY
360
300
102
}
330
2A
100
AcDbVisualStyle
  2
Realistic
 70
     8
 71
     2
 72
     3
 73
     0
 90
        2
 40
0.6
 41
30.0
 62
     5
 63
     7
421
 16777215
 74
     0
 91
        0
 64
     7
 65
   257
 75
     1
175
     1
 42
1.0
 92
        8
 66
   257
 43
1.0
 76
     1
 77
     6
 78
     2
 67
     7
 79
     3
170
     0
171
     0
290
     0
174
     0
 93
       13
 44
0.0
173
     0
291
     0
 45
0.0
1001
ACAD
1000
AcDbSavedByObjectVersion
1070
     0
  0
VISUALSTYLE
  5
42
102
{ACAD_REACTORS
330
2A
102
}
102
{ACAD_XDICTIONARY
360
31E
102
}
330
2A
100
AcDbVisualStyle
  2
Shaded
 70
    27
 71
     2
 72
     2
 73
     1
 90
        2
 40
0.6
 41
30.0
 62
     5
 63
     7
421
 16777215
 74
     0
 91
        4
 64
     7
 65
   257
 75
     1
175
     1
 42
1.0
 92
        8
 66
   257
 43
1.0
 76
     1
 77
     6
 78
     2
 67
     8
425
  7895160
 79
     3
170
     0
171
     0
290
     0
174
     0
 93
        5
 44
0.0
173
     0
291
     0
 45
0.0
1001
ACAD
1000
AcDbSavedByObjectVersion
1070
     0
  0
VISUALSTYLE
  5
41
102
{ACAD_REACTORS
330
2A
102
}
102
{ACAD_XDICTIONARY
360
31C
102
}
330
2A
100
AcDbVisualStyle
  2
Shaded with edges
 70
    26
 71
     2
 72
     2
 73
     1
 90
        2
 40
0.6
 41
30.0
 62
     5
 63
     7
421
 16777215
 74
     1
 91
       10
 64
     7
 65
   257
 75
     2
175
     1
 42
1.0
 92
        8
 66
   257
 43
1.0
 76
     1
 77
     6
 78
     2
 67
     7
 79
     3
170
     0
171
     0
290
     0
174
     0
 93
        5
 44
0.0
173
     0
291
     0
 45
0.0
1001
ACAD
1000
AcDbSavedByObjectVersion
1070
     0
  0
VISUALSTYLE
  5
3E
102
{ACAD_REACTORS
330
2A
102
}
102
{ACAD_XDICTIONARY
360
316
102
}
330
2A
100
AcDbVisualStyle
  2
Shades of Gray
 70
    23
 71
     2
 72
     2
 73
     3
 90
        0
 40
0.6
 41
30.0
 62
     5
 63
     7
421
 16777215
 74
     2
 91
        2
 64
     7
 65
     7
 75
     1
175
     1
 42
40.0
 92
        8
 66
     7
 43
1.0
 76
     1
 77
     6
 78
     2
 67
     7
 79
     3
170
     0
171
     0
290
     0
174
     0
 93
        1
 44
0.0
173
     0
291
     0
 45
0.0
1001
ACAD
1000
AcDbSavedByObjectVersion
1070
     0
  0
VISUALSTYLE
  5
3F
102
{ACAD_REACTORS
330
2A
102
}
102
{ACAD_XDICTIONARY
360
318
102
}
330
2A
100
AcDbVisualStyle
  2
Sketchy
 70
    24
 71
     1
 72
     2
 73
     2
 90
        0
 40
0.6
 41
30.0
 62
     5
 63
     7
421
 16777215
 74
     2
 91
        2
 64
     7
 65
     7
 75
     1
175
     1
 42
40.0
 92
       11
 66
     7
 43
1.0
 76
     1
 77
     6
 78
     2
 67
     7
 79
     6
170
     0
171
     0
290
     0
174
     0
 93
        1
 44
0.0
173
     0
291
     0
 45
0.0
1001
ACAD
1000
AcDbSavedByObjectVersion
1070
     0
  0
VISUALSTYLE
  5
37
102
{ACAD_REACTORS
330
2A
102
}
102
{ACAD_XDICTIONARY
360
308
102
}
330
2A
100
AcDbVisualStyle
  2
Thicken
 70
    13
 71
     2
 72
     2
 73
     0
 90
        0
 40
0.6
 41
30.0
 62
     5
 63
     7
421
 16777215
 74
     1
 91
        4
 64
     7
 65
   257
 75
     1
175
     1
 42
1.0
 92
       12
 66
     7
 43
1.0
 76
     1
 77
     6
 78
     2
 67
     7
 79
     5
170
     0
171
     0
290
     0
174
     0
 93
        1
 44
0.0
173
     0
291
     1
 45
0.0
1001
ACAD
1000
AcDbSavedByObjectVersion
1070
     0
  0
VISUALSTYLE
  5
30
102
{ACAD_REACTORS
330
2A
102
}
102
{ACAD_XDICTIONARY
360
2FA
102
}
330
2A
100
AcDbVisualStyle
  2
Wireframe
 70
     5
 71
     0
 72
     2
 73
     0
 90
        0
 40
0.6
 41
30.0
 62
     5
 63
     7
421
 16777215
 74
     1
 91
        4
 64
     7
 65
   257
 75
     1
175
     1
 42
1.0
 92
        0
 66
   257
 43
1.0
 76
     1
 77
     6
 78
     2
 67
     7
 79
     3
170
     0
171
     0
290
     0
174
     0
 93
        1
 44
0.0
173
     0
291
     0
 45
0.0
1001
ACAD
1000
AcDbSavedByObjectVersion
1070
     0
  0
VISUALSTYLE
  5
40
102
{ACAD_REACTORS
330
2A
102
}
102
{ACAD_XDICTIONARY
360
31A
102
}
330
2A
100
AcDbVisualStyle
  2
X-Ray
 70
    25
 71
     2
 72
     2
 73
     1
 90
        1
 40
0.5
 41
30.0
 62
     5
 63
     7
421
 16777215
 74
     1
 91
        0
 64
     7
 65
   257
 75
     1
175
     1
 42
1.0
 92
        8
 66
     7
 43
1.0
 76
     1
 77
     6
 78
     2
 67
     7
 79
     3
170
     0
171
     0
290
     0
174
     0
 93
       13
 44
0.0
173
     0
291
     0
 45
0.0
1001
ACAD
1000
AcDbSavedByObjectVersion
1070
     0
  0
DICTIONARYVAR
  5
2EE
102
{ACAD_REACTORS
330
2ED
102
}
330
2ED
100
DictionaryVariables
280
     0
  1
1:1
  0
DICTIONARYVAR
  5
2EF
102
{ACAD_REACTORS
330
2ED
102
}
330
2ED
100
DictionaryVariables
280
     0
  1
1
  0
DICTIONARY
  5
322
330
45
100
AcDbDictionary
280
     1
281
     1
  3
ACAD_XREC_ROUNDTRIP
360
323
  0
DICTIONARY
  5
320
330
44
100
AcDbDictionary
280
     1
281
     1
  3
ACAD_XREC_ROUNDTRIP
360
321
  0
DICTIONARY
  5
324
330
46
100
AcDbDictionary
280
     1
281
     1
  3
ACAD_XREC_ROUNDTRIP
360
325
  0
DICTIONARY
  5
2F8
330
2F
100
AcDbDictionary
280
     1
281
     1
  3
ACAD_XREC_ROUNDTRIP
360
2F9
  0
DICTIONARY
  5
2FE
330
32
100
AcDbDictionary
280
     1
281
     1
  3
ACAD_XREC_ROUNDTRIP
360
2FF
  0
DICTIONARY
  5
306
330
36
100
AcDbDictionary
280
     1
281
     1
  3
ACAD_XREC_ROUNDTRIP
360
307
  0
DICTIONARY
  5
30E
330
3A
100
AcDbDictionary
280
     1
281
     1
  3
ACAD_XREC_ROUNDTRIP
360
30F
  0
DICTIONARY
  5
302
330
34
100
AcDbDictionary
280
     1
281
     1
  3
ACAD_XREC_ROUNDTRIP
360
303
  0
DICTIONARY
  5
304
330
35
100
AcDbDictionary
280
     1
281
     1
  3
ACAD_XREC_ROUNDTRIP
360
305
  0
DICTIONARY
  5
314
330
3D
100
AcDbDictionary
280
     1
281
     1
  3
ACAD_XREC_ROUNDTRIP
360
315
  0
DICTIONARY
  5
30C
330
39
100
AcDbDictionary
280
     1
281
     1
  3
ACAD_XREC_ROUNDTRIP
360
30D
  0
DICTIONARY
  5
2F0
330
2B
100
AcDbDictionary
280
     1
281
     1
  3
ACAD_XREC_ROUNDTRIP
360
2F1
  0
DICTIONARY
  5
2F2
330
2C
100
AcDbDictionary
280
     1
281
     1
  3
ACAD_XREC_ROUNDTRIP
360
2F3
  0
DICTIONARY
  5
2F4
330
2D
100
AcDbDictionary
280
     1
281
     1
  3
ACAD_XREC_ROUNDTRIP
360
2F5
  0
DICTIONARY
  5
2F6
330
2E
100
AcDbDictionary
280
     1
281
     1
  3
ACAD_XREC_ROUNDTRIP
360
2F7
  0
DICTIONARY
  5
2FC
330
31
100
AcDbDictionary
280
     1
281
     1
  3
ACAD_XREC_ROUNDTRIP
360
2FD
  0
DICTIONARY
  5
310
330
3B
100
AcDbDictionary
280
     1
281
     1
  3
ACAD_XREC_ROUNDTRIP
360
311
  0
DICTIONARY
  5
30A
330
38
100
AcDbDictionary
280
     1
281
     1
  3
ACAD_XREC_ROUNDTRIP
360
30B
  0
DICTIONARY
  5
312
330
3C
100
AcDbDictionary
280
     1
281
     1
  3
ACAD_XREC_ROUNDTRIP
360
313
  0
DICTIONARY
  5
300
330
33
100
AcDbDictionary
280
     1
281
     1
  3
ACAD_XREC_ROUNDTRIP
360
301
  0
DICTIONARY
  5
31E
330
42
100
AcDbDictionary
280
     1
281
     1
  3
ACAD_XREC_ROUNDTRIP
360
31F
  0
DICTIONARY
  5
31C
330
41
100
AcDbDictionary
280
     1
281
     1
  3
ACAD_XREC_ROUNDTRIP
360
31D
  0
DICTIONARY
  5
316
330
3E
100
AcDbDictionary
280
     1
281
     1
  3
ACAD_XREC_ROUNDTRIP
360
317
  0
DICTIONARY
  5
318
330
3F
100
AcDbDictionary
280
     1
281
     1
  3
ACAD_XREC_ROUNDTRIP
360
319
  0
DICTIONARY
  5
308
330
37
100
AcDbDictionary
280
     1
281
     1
  3
ACAD_XREC_ROUNDTRIP
360
309
  0
DICTIONARY
  5
2FA
330
30
100
AcDbDictionary
280
     1
281
     1
  3
ACAD_XREC_ROUNDTRIP
360
2FB
  0
DICTIONARY
  5
31A
330
40
100
AcDbDictionary
280
     1
281
     1
  3
ACAD_XREC_ROUNDTRIP
360
31B
  0
XRECORD
  5
323
102
{ACAD_REACTORS
330
322
102
}
330
322
100
AcDbXrecord
280
     1
102
MATERIAL
148
0.0
149
0.0
149
0.0
 93
        0
 94
      127
282
     0
 72
     1
 77
     1
171
     1
175
     1
179
     1
273
     0
  0
XRECORD
  5
321
102
{ACAD_REACTORS
330
320
102
}
330
320
100
AcDbXrecord
280
     1
102
MATERIAL
148
0.0
149
0.0
149
0.0
 93
        0
 94
      127
282
     0
 72
     1
 77
     1
171
     1
175
     1
179
     1
273
     0
  0
XRECORD
  5
325
102
{ACAD_REACTORS
330
324
102
}
330
324
100
AcDbXrecord
280
     1
102
MATERIAL
148
0.0
149
0.0
149
0.0
 93
        0
 94
      127
282
     0
 72
     1
 77
     1
171
     1
175
     1
179
     1
273
     0
  0
XRECORD
  5
2F9
102
{ACAD_REACTORS
330
2F8
102
}
330
2F8
100
AcDbXrecord
280
     1
102
RTVSPropertyOp0
 70
     1
102
RTVSPropertyOp1
 70
     1
102
RTVSPropertyOp2
 70
     1
102
RTVSPropertyOp3
 70
     1
102
RTVSPropertyOp4
 70
     1
102
RTVSPropertyOp5
 70
     1
102
RTVSPropertyOp6
 70
     1
102
RTVSPropertyOp7
 70
     1
102
RTVSPropertyOp8
 70
     1
102
RTVSPropertyOp9
 70
     1
102
RTVSPropertyOp10
 70
     1
102
RTVSPropertyOp11
 70
     1
102
RTVSPropertyOp12
 70
     1
102
RTVSPropertyOp13
 70
     1
102
RTVSPropertyOp14
 70
     1
102
RTVSPropertyOp15
 70
     1
102
RTVSPropertyOp16
 70
     1
102
RTVSPropertyOp17
 70
     1
102
RTVSPropertyOp18
 70
     1
102
RTVSPropertyOp19
 70
     1
102
RTVSPropertyOp20
 70
     1
102
RTVSPropertyOp21
 70
     1
102
RTVSPropertyOp22
 70
     1
102
RTVSPropertyOp23
 70
     1
102
RTVSPropertyOp24
 70
     1
102
RTVSPropertyOp25
 70
     1
102
RTVSPropertyOp26
 70
     1
102
RTVSPropertyOp27
 70
     1
102
RTVSPropertyOp28
 70
     1
102
RTVSPropertyOp29
 70
     1
102
RTVSPropertyOp30
 70
     1
102
RTVSPropertyOp31
 70
     1
102
RTVSPropertyOp32
 70
     1
102
RTVSPropertyOp33
 70
     1
102
RTVSPropertyOp34
 70
     1
102
RTVSPropertyOp35
 70
     1
102
RTVSPropertyOp36
 70
     1
102
RTVSPropertyOp37
 70
     1
102
RTVSPropertyOp38
 70
     1
102
RTVSPropertyOp39
 70
     1
102
RTVSPropertyOp40
 70
     1
102
RTVSPropertyOp41
 70
     1
102
RTVSPropertyOp42
 70
     1
102
RTVSPropertyOp43
 70
     1
102
RTVSPropertyOp44
 70
     1
102
RTVSPropertyOp45
 70
     1
102
RTVSPropertyOp46
 70
     1
102
RTVSPropertyOp47
 70
     1
102
RTVSPropertyOp48
 70
     1
102
RTVSPropertyOp49
 70
     1
102
RTVSPropertyOp50
 70
     1
102
RTVSPropertyOp51
 70
     0
102
RTVSPropertyOp52
 70
     0
102
RTVSPropertyOp53
 70
     1
102
RTVSPropertyOp54
 70
     1
102
RTVSPropertyOp55
 70
     1
102
RTVSPropertyOp56
 70
     1
102
RTVSPropertyOp57
 70
     1
102
RTVSPost2010Prop28
280
     1
102
RTVSPost2010PropOp28
 70
     1
102
RTVSPost2010Prop29
280
     1
102
RTVSPost2010PropOp29
 70
     1
102
RTVSPost2010Prop30
280
     0
102
RTVSPost2010PropOp30
 70
     1
102
RTVSPost2010Prop31
280
     0
102
RTVSPost2010PropOp31
 70
     1
102
RTVSPost2010Prop32
280
     0
102
RTVSPost2010PropOp32
 70
     1
102
RTVSPost2010Prop33
280
     0
102
RTVSPost2010PropOp33
 70
     1
102
RTVSPost2010Prop34
280
     0
102
RTVSPost2010PropOp34
 70
     1
102
RTVSPost2010Prop35
280
     0
102
RTVSPost2010PropOp35
 70
     1
102
RTVSPost2010Prop36
280
     0
102
RTVSPost2010PropOp36
 70
     1
102
RTVSPost2010Prop37
 90
       50
102
RTVSPost2010PropOp37
 70
     1
102
RTVSPost2010Prop38
140
0.0
102
RTVSPost2010PropOp38
 70
     1
102
RTVSPost2010Prop39
140
1.0
102
RTVSPost2010PropOp39
 70
     1
102
RTVSPost2010Prop40
 90
        0
102
RTVSPost2010PropOp40
 70
     1
102
RTVSPost2010Prop41ColorIndex
 90
       18
102
RTVSPost2010Prop41ColorRGB
 90
        0
102
RTVSPost2010PropOp41
 70
     1
102
RTVSPost2010Prop42
 90
       50
102
RTVSPost2010PropOp42
 70
     1
102
RTVSPost2010Prop43
 90
        3
102
RTVSPost2010PropOp43
 70
     1
102
RTVSPost2010Prop44ColorIndex
 90
        5
102
RTVSPost2010Prop44ColorRGB
 90
      255
102
RTVSPost2010PropOp44
 70
     1
102
RTVSPost2010Prop45
280
     0
102
RTVSPost2010PropOp45
 70
     1
102
RTVSPost2010Prop46
 90
       50
102
RTVSPost2010PropOp46
 70
     1
102
RTVSPost2010Prop47
 90
       50
102
RTVSPost2010PropOp47
 70
     1
102
RTVSPost2010Prop48
 90
       50
102
RTVSPost2010PropOp48
 70
     1
102
RTVSPost2010Prop49
280
     0
102
RTVSPost2010PropOp49
 70
     1
102
RTVSPost2010Prop50
 90
       50
102
RTVSPost2010PropOp50
 70
     1
102
RTVSPost2010Prop51ColorIndex
 90
      256
102
RTVSPost2010Prop51ColorRGB
 90
-16777216
102
RTVSPost2010PropOp51
 70
     0
102
RTVSPost2010Prop52
140
1.0
102
RTVSPost2010PropOp52
 70
     0
102
RTVSPost2010Prop53
 90
        2
102
RTVSPost2010PropOp53
 70
     1
102
RTVSPost2010Prop54
  1
strokes_ogs.tif
102
RTVSPost2010PropOp54
 70
     1
102
RTVSPost2010Prop55
280
     0
102
RTVSPost2010PropOp55
 70
     1
102
RTVSPost2010Prop56
140
1.0
102
RTVSPost2010PropOp56
 70
     1
102
RTVSPost2010Prop57
140
1.0
102
RTVSPost2010PropOp57
 70
     1
  0
XRECORD
  5
2FF
102
{ACAD_REACTORS
330
2FE
102
}
330
2FE
100
AcDbXrecord
280
     1
102
RTVSPropertyOp0
 70
     1
102
RTVSPropertyOp1
 70
     1
102
RTVSPropertyOp2
 70
     1
102
RTVSPropertyOp3
 70
     1
102
RTVSPropertyOp4
 70
     1
102
RTVSPropertyOp5
 70
     1
102
RTVSPropertyOp6
 70
     1
102
RTVSPropertyOp7
 70
     1
102
RTVSPropertyOp8
 70
     1
102
RTVSPropertyOp9
 70
     1
102
RTVSPropertyOp10
 70
     1
102
RTVSPropertyOp11
 70
     1
102
RTVSPropertyOp12
 70
     1
102
RTVSPropertyOp13
 70
     1
102
RTVSPropertyOp14
 70
     1
102
RTVSPropertyOp15
 70
     1
102
RTVSPropertyOp16
 70
     1
102
RTVSPropertyOp17
 70
     1
102
RTVSPropertyOp18
 70
     1
102
RTVSPropertyOp19
 70
     1
102
RTVSPropertyOp20
 70
     1
102
RTVSPropertyOp21
 70
     1
102
RTVSPropertyOp22
 70
     1
102
RTVSPropertyOp23
 70
     1
102
RTVSPropertyOp24
 70
     1
102
RTVSPropertyOp25
 70
     1
102
RTVSPropertyOp26
 70
     1
102
RTVSPropertyOp27
 70
     1
102
RTVSPropertyOp28
 70
     1
102
RTVSPropertyOp29
 70
     1
102
RTVSPropertyOp30
 70
     1
102
RTVSPropertyOp31
 70
     1
102
RTVSPropertyOp32
 70
     1
102
RTVSPropertyOp33
 70
     1
102
RTVSPropertyOp34
 70
     1
102
RTVSPropertyOp35
 70
     1
102
RTVSPropertyOp36
 70
     1
102
RTVSPropertyOp37
 70
     1
102
RTVSPropertyOp38
 70
     1
102
RTVSPropertyOp39
 70
     1
102
RTVSPropertyOp40
 70
     1
102
RTVSPropertyOp41
 70
     1
102
RTVSPropertyOp42
 70
     1
102
RTVSPropertyOp43
 70
     1
102
RTVSPropertyOp44
 70
     1
102
RTVSPropertyOp45
 70
     1
102
RTVSPropertyOp46
 70
     1
102
RTVSPropertyOp47
 70
     1
102
RTVSPropertyOp48
 70
     1
102
RTVSPropertyOp49
 70
     1
102
RTVSPropertyOp50
 70
     1
102
RTVSPropertyOp51
 70
     0
102
RTVSPropertyOp52
 70
     0
102
RTVSPropertyOp53
 70
     1
102
RTVSPropertyOp54
 70
     1
102
RTVSPropertyOp55
 70
     1
102
RTVSPropertyOp56
 70
     1
102
RTVSPropertyOp57
 70
     1
102
RTVSPost2010Prop28
280
     0
102
RTVSPost2010PropOp28
 70
     1
102
RTVSPost2010Prop29
280
     1
102
RTVSPost2010PropOp29
 70
     1
102
RTVSPost2010Prop30
280
     1
102
RTVSPost2010PropOp30
 70
     1
102
RTVSPost2010Prop31
280
     0
102
RTVSPost2010PropOp31
 70
     1
102
RTVSPost2010Prop32
280
     0
102
RTVSPost2010PropOp32
 70
     1
102
RTVSPost2010Prop33
280
     0
102
RTVSPost2010PropOp33
 70
     1
102
RTVSPost2010Prop34
280
     0
102
RTVSPost2010PropOp34
 70
     1
102
RTVSPost2010Prop35
280
     0
102
RTVSPost2010PropOp35
 70
     1
102
RTVSPost2010Prop36
280
     0
102
RTVSPost2010PropOp36
 70
     1
102
RTVSPost2010Prop37
 90
       50
102
RTVSPost2010PropOp37
 70
     1
102
RTVSPost2010Prop38
140
0.0
102
RTVSPost2010PropOp38
 70
     1
102
RTVSPost2010Prop39
140
1.0
102
RTVSPost2010PropOp39
 70
     1
102
RTVSPost2010Prop40
 90
        0
102
RTVSPost2010PropOp40
 70
     1
102
RTVSPost2010Prop41ColorIndex
 90
       18
102
RTVSPost2010Prop41ColorRGB
 90
        0
102
RTVSPost2010PropOp41
 70
     1
102
RTVSPost2010Prop42
 90
       50
102
RTVSPost2010PropOp42
 70
     1
102
RTVSPost2010Prop43
 90
        3
102
RTVSPost2010PropOp43
 70
     1
102
RTVSPost2010Prop44ColorIndex
 90
        5
102
RTVSPost2010Prop44ColorRGB
 90
      255
102
RTVSPost2010PropOp44
 70
     1
102
RTVSPost2010Prop45
280
     0
102
RTVSPost2010PropOp45
 70
     1
102
RTVSPost2010Prop46
 90
       50
102
RTVSPost2010PropOp46
 70
     1
102
RTVSPost2010Prop47
 90
       50
102
RTVSPost2010PropOp47
 70
     1
102
RTVSPost2010Prop48
 90
       50
102
RTVSPost2010PropOp48
 70
     1
102
RTVSPost2010Prop49
280
     0
102
RTVSPost2010PropOp49
 70
     1
102
RTVSPost2010Prop50
 90
       50
102
RTVSPost2010PropOp50
 70
     1
102
RTVSPost2010Prop51ColorIndex
 90
      256
102
RTVSPost2010Prop51ColorRGB
 90
-16777216
102
RTVSPost2010PropOp51
 70
     0
102
RTVSPost2010Prop52
140
1.0
102
RTVSPost2010PropOp52
 70
     0
102
RTVSPost2010Prop53
 90
        2
102
RTVSPost2010PropOp53
 70
     1
102
RTVSPost2010Prop54
  1
strokes_ogs.tif
102
RTVSPost2010PropOp54
 70
     1
102
RTVSPost2010Prop55
280
     0
102
RTVSPost2010PropOp55
 70
     1
102
RTVSPost2010Prop56
140
1.0
102
RTVSPost2010PropOp56
 70
     1
102
RTVSPost2010Prop57
140
1.0
102
RTVSPost2010PropOp57
 70
     1
  0
XRECORD
  5
307
102
{ACAD_REACTORS
330
306
102
}
330
306
100
AcDbXrecord
280
     1
102
RTVSPropertyOp0
 70
     1
102
RTVSPropertyOp1
 70
     1
102
RTVSPropertyOp2
 70
     1
102
RTVSPropertyOp3
 70
     1
102
RTVSPropertyOp4
 70
     1
102
RTVSPropertyOp5
 70
     1
102
RTVSPropertyOp6
 70
     1
102
RTVSPropertyOp7
 70
     1
102
RTVSPropertyOp8
 70
     1
102
RTVSPropertyOp9
 70
     1
102
RTVSPropertyOp10
 70
     1
102
RTVSPropertyOp11
 70
     1
102
RTVSPropertyOp12
 70
     1
102
RTVSPropertyOp13
 70
     1
102
RTVSPropertyOp14
 70
     1
102
RTVSPropertyOp15
 70
     1
102
RTVSPropertyOp16
 70
     1
102
RTVSPropertyOp17
 70
     1
102
RTVSPropertyOp18
 70
     1
102
RTVSPropertyOp19
 70
     1
102
RTVSPropertyOp20
 70
     1
102
RTVSPropertyOp21
 70
     1
102
RTVSPropertyOp22
 70
     1
102
RTVSPropertyOp23
 70
     1
102
RTVSPropertyOp24
 70
     1
102
RTVSPropertyOp25
 70
     1
102
RTVSPropertyOp26
 70
     1
102
RTVSPropertyOp27
 70
     1
102
RTVSPropertyOp28
 70
     1
102
RTVSPropertyOp29
 70
     1
102
RTVSPropertyOp30
 70
     1
102
RTVSPropertyOp31
 70
     1
102
RTVSPropertyOp32
 70
     1
102
RTVSPropertyOp33
 70
     1
102
RTVSPropertyOp34
 70
     1
102
RTVSPropertyOp35
 70
     1
102
RTVSPropertyOp36
 70
     1
102
RTVSPropertyOp37
 70
     1
102
RTVSPropertyOp38
 70
     1
102
RTVSPropertyOp39
 70
     1
102
RTVSPropertyOp40
 70
     1
102
RTVSPropertyOp41
 70
     1
102
RTVSPropertyOp42
 70
     1
102
RTVSPropertyOp43
 70
     1
102
RTVSPropertyOp44
 70
     1
102
RTVSPropertyOp45
 70
     1
102
RTVSPropertyOp46
 70
     1
102
RTVSPropertyOp47
 70
     1
102
RTVSPropertyOp48
 70
     1
102
RTVSPropertyOp49
 70
     1
102
RTVSPropertyOp50
 70
     1
102
RTVSPropertyOp51
 70
     0
102
RTVSPropertyOp52
 70
     0
102
RTVSPropertyOp53
 70
     1
102
RTVSPropertyOp54
 70
     1
102
RTVSPropertyOp55
 70
     1
102
RTVSPropertyOp56
 70
     1
102
RTVSPropertyOp57
 70
     1
102
RTVSPost2010Prop28
280
     0
102
RTVSPost2010PropOp28
 70
     1
102
RTVSPost2010Prop29
280
     1
102
RTVSPost2010PropOp29
 70
     1
102
RTVSPost2010Prop30
280
     1
102
RTVSPost2010PropOp30
 70
     1
102
RTVSPost2010Prop31
280
     0
102
RTVSPost2010PropOp31
 70
     1
102
RTVSPost2010Prop32
280
     0
102
RTVSPost2010PropOp32
 70
     1
102
RTVSPost2010Prop33
280
     0
102
RTVSPost2010PropOp33
 70
     1
102
RTVSPost2010Prop34
280
     0
102
RTVSPost2010PropOp34
 70
     1
102
RTVSPost2010Prop35
280
     0
102
RTVSPost2010PropOp35
 70
     1
102
RTVSPost2010Prop36
280
     0
102
RTVSPost2010PropOp36
 70
     1
102
RTVSPost2010Prop37
 90
       50
102
RTVSPost2010PropOp37
 70
     1
102
RTVSPost2010Prop38
140
0.0
102
RTVSPost2010PropOp38
 70
     1
102
RTVSPost2010Prop39
140
1.0
102
RTVSPost2010PropOp39
 70
     1
102
RTVSPost2010Prop40
 90
        0
102
RTVSPost2010PropOp40
 70
     1
102
RTVSPost2010Prop41ColorIndex
 90
       18
102
RTVSPost2010Prop41ColorRGB
 90
        0
102
RTVSPost2010PropOp41
 70
     1
102
RTVSPost2010Prop42
 90
       50
102
RTVSPost2010PropOp42
 70
     1
102
RTVSPost2010Prop43
 90
        3
102
RTVSPost2010PropOp43
 70
     1
102
RTVSPost2010Prop44ColorIndex
 90
        5
102
RTVSPost2010Prop44ColorRGB
 90
      255
102
RTVSPost2010PropOp44
 70
     1
102
RTVSPost2010Prop45
280
     0
102
RTVSPost2010PropOp45
 70
     1
102
RTVSPost2010Prop46
 90
       50
102
RTVSPost2010PropOp46
 70
     1
102
RTVSPost2010Prop47
 90
       50
102
RTVSPost2010PropOp47
 70
     1
102
RTVSPost2010Prop48
 90
       50
102
RTVSPost2010PropOp48
 70
     1
102
RTVSPost2010Prop49
280
     0
102
RTVSPost2010PropOp49
 70
     1
102
RTVSPost2010Prop50
 90
       50
102
RTVSPost2010PropOp50
 70
     1
102
RTVSPost2010Prop51ColorIndex
 90
      256
102
RTVSPost2010Prop51ColorRGB
 90
-16777216
102
RTVSPost2010PropOp51
 70
     0
102
RTVSPost2010Prop52
140
1.0
102
RTVSPost2010PropOp52
 70
     0
102
RTVSPost2010Prop53
 90
        2
102
RTVSPost2010PropOp53
 70
     1
102
RTVSPost2010Prop54
  1
strokes_ogs.tif
102
RTVSPost2010PropOp54
 70
     1
102
RTVSPost2010Prop55
280
     0
102
RTVSPost2010PropOp55
 70
     1
102
RTVSPost2010Prop56
140
1.0
102
RTVSPost2010PropOp56
 70
     1
102
RTVSPost2010Prop57
140
1.0
102
RTVSPost2010PropOp57
 70
     1
  0
XRECORD
  5
30F
102
{ACAD_REACTORS
330
30E
102
}
330
30E
100
AcDbXrecord
280
     1
102
RTVSPropertyOp0
 70
     1
102
RTVSPropertyOp1
 70
     1
102
RTVSPropertyOp2
 70
     1
102
RTVSPropertyOp3
 70
     1
102
RTVSPropertyOp4
 70
     1
102
RTVSPropertyOp5
 70
     1
102
RTVSPropertyOp6
 70
     1
102
RTVSPropertyOp7
 70
     1
102
RTVSPropertyOp8
 70
     1
102
RTVSPropertyOp9
 70
     1
102
RTVSPropertyOp10
 70
     1
102
RTVSPropertyOp11
 70
     1
102
RTVSPropertyOp12
 70
     1
102
RTVSPropertyOp13
 70
     1
102
RTVSPropertyOp14
 70
     1
102
RTVSPropertyOp15
 70
     1
102
RTVSPropertyOp16
 70
     1
102
RTVSPropertyOp17
 70
     1
102
RTVSPropertyOp18
 70
     1
102
RTVSPropertyOp19
 70
     1
102
RTVSPropertyOp20
 70
     1
102
RTVSPropertyOp21
 70
     1
102
RTVSPropertyOp22
 70
     1
102
RTVSPropertyOp23
 70
     1
102
RTVSPropertyOp24
 70
     1
102
RTVSPropertyOp25
 70
     1
102
RTVSPropertyOp26
 70
     1
102
RTVSPropertyOp27
 70
     1
102
RTVSPropertyOp28
 70
     1
102
RTVSPropertyOp29
 70
     1
102
RTVSPropertyOp30
 70
     1
102
RTVSPropertyOp31
 70
     1
102
RTVSPropertyOp32
 70
     1
102
RTVSPropertyOp33
 70
     1
102
RTVSPropertyOp34
 70
     1
102
RTVSPropertyOp35
 70
     1
102
RTVSPropertyOp36
 70
     1
102
RTVSPropertyOp37
 70
     1
102
RTVSPropertyOp38
 70
     1
102
RTVSPropertyOp39
 70
     1
102
RTVSPropertyOp40
 70
     1
102
RTVSPropertyOp41
 70
     1
102
RTVSPropertyOp42
 70
     1
102
RTVSPropertyOp43
 70
     1
102
RTVSPropertyOp44
 70
     1
102
RTVSPropertyOp45
 70
     1
102
RTVSPropertyOp46
 70
     1
102
RTVSPropertyOp47
 70
     1
102
RTVSPropertyOp48
 70
     1
102
RTVSPropertyOp49
 70
     1
102
RTVSPropertyOp50
 70
     1
102
RTVSPropertyOp51
 70
     0
102
RTVSPropertyOp52
 70
     0
102
RTVSPropertyOp53
 70
     1
102
RTVSPropertyOp54
 70
     1
102
RTVSPropertyOp55
 70
     1
102
RTVSPropertyOp56
 70
     1
102
RTVSPropertyOp57
 70
     1
102
RTVSPost2010Prop28
280
     0
102
RTVSPost2010PropOp28
 70
     1
102
RTVSPost2010Prop29
280
     1
102
RTVSPost2010PropOp29
 70
     1
102
RTVSPost2010Prop30
280
     1
102
RTVSPost2010PropOp30
 70
     1
102
RTVSPost2010Prop31
280
     0
102
RTVSPost2010PropOp31
 70
     1
102
RTVSPost2010Prop32
280
     0
102
RTVSPost2010PropOp32
 70
     1
102
RTVSPost2010Prop33
280
     0
102
RTVSPost2010PropOp33
 70
     1
102
RTVSPost2010Prop34
280
     0
102
RTVSPost2010PropOp34
 70
     1
102
RTVSPost2010Prop35
280
     0
102
RTVSPost2010PropOp35
 70
     1
102
RTVSPost2010Prop36
280
     0
102
RTVSPost2010PropOp36
 70
     1
102
RTVSPost2010Prop37
 90
       50
102
RTVSPost2010PropOp37
 70
     1
102
RTVSPost2010Prop38
140
0.0
102
RTVSPost2010PropOp38
 70
     1
102
RTVSPost2010Prop39
140
1.0
102
RTVSPost2010PropOp39
 70
     1
102
RTVSPost2010Prop40
 90
        0
102
RTVSPost2010PropOp40
 70
     1
102
RTVSPost2010Prop41ColorIndex
 90
       18
102
RTVSPost2010Prop41ColorRGB
 90
        0
102
RTVSPost2010PropOp41
 70
     1
102
RTVSPost2010Prop42
 90
       50
102
RTVSPost2010PropOp42
 70
     1
102
RTVSPost2010Prop43
 90
        3
102
RTVSPost2010PropOp43
 70
     1
102
RTVSPost2010Prop44ColorIndex
 90
        5
102
RTVSPost2010Prop44ColorRGB
 90
      255
102
RTVSPost2010PropOp44
 70
     1
102
RTVSPost2010Prop45
280
     0
102
RTVSPost2010PropOp45
 70
     1
102
RTVSPost2010Prop46
 90
       50
102
RTVSPost2010PropOp46
 70
     1
102
RTVSPost2010Prop47
 90
       50
102
RTVSPost2010PropOp47
 70
     1
102
RTVSPost2010Prop48
 90
       50
102
RTVSPost2010PropOp48
 70
     1
102
RTVSPost2010Prop49
280
     0
102
RTVSPost2010PropOp49
 70
     1
102
RTVSPost2010Prop50
 90
       50
102
RTVSPost2010PropOp50
 70
     1
102
RTVSPost2010Prop51ColorIndex
 90
      256
102
RTVSPost2010Prop51ColorRGB
 90
-16777216
102
RTVSPost2010PropOp51
 70
     0
102
RTVSPost2010Prop52
140
1.0
102
RTVSPost2010PropOp52
 70
     0
102
RTVSPost2010Prop53
 90
        2
102
RTVSPost2010PropOp53
 70
     1
102
RTVSPost2010Prop54
  1
strokes_ogs.tif
102
RTVSPost2010PropOp54
 70
     1
102
RTVSPost2010Prop55
280
     0
102
RTVSPost2010PropOp55
 70
     1
102
RTVSPost2010Prop56
140
1.0
102
RTVSPost2010PropOp56
 70
     1
102
RTVSPost2010Prop57
140
1.0
102
RTVSPost2010PropOp57
 70
     1
  0
XRECORD
  5
303
102
{ACAD_REACTORS
330
302
102
}
330
302
100
AcDbXrecord
280
     1
102
RTVSPropertyOp0
 70
     1
102
RTVSPropertyOp1
 70
     1
102
RTVSPropertyOp2
 70
     1
102
RTVSPropertyOp3
 70
     1
102
RTVSPropertyOp4
 70
     1
102
RTVSPropertyOp5
 70
     1
102
RTVSPropertyOp6
 70
     1
102
RTVSPropertyOp7
 70
     1
102
RTVSPropertyOp8
 70
     1
102
RTVSPropertyOp9
 70
     1
102
RTVSPropertyOp10
 70
     1
102
RTVSPropertyOp11
 70
     1
102
RTVSPropertyOp12
 70
     1
102
RTVSPropertyOp13
 70
     1
102
RTVSPropertyOp14
 70
     1
102
RTVSPropertyOp15
 70
     1
102
RTVSPropertyOp16
 70
     1
102
RTVSPropertyOp17
 70
     1
102
RTVSPropertyOp18
 70
     1
102
RTVSPropertyOp19
 70
     1
102
RTVSPropertyOp20
 70
     1
102
RTVSPropertyOp21
 70
     1
102
RTVSPropertyOp22
 70
     1
102
RTVSPropertyOp23
 70
     1
102
RTVSPropertyOp24
 70
     1
102
RTVSPropertyOp25
 70
     1
102
RTVSPropertyOp26
 70
     1
102
RTVSPropertyOp27
 70
     1
102
RTVSPropertyOp28
 70
     1
102
RTVSPropertyOp29
 70
     1
102
RTVSPropertyOp30
 70
     1
102
RTVSPropertyOp31
 70
     1
102
RTVSPropertyOp32
 70
     1
102
RTVSPropertyOp33
 70
     1
102
RTVSPropertyOp34
 70
     1
102
RTVSPropertyOp35
 70
     1
102
RTVSPropertyOp36
 70
     1
102
RTVSPropertyOp37
 70
     1
102
RTVSPropertyOp38
 70
     1
102
RTVSPropertyOp39
 70
     1
102
RTVSPropertyOp40
 70
     1
102
RTVSPropertyOp41
 70
     1
102
RTVSPropertyOp42
 70
     1
102
RTVSPropertyOp43
 70
     1
102
RTVSPropertyOp44
 70
     1
102
RTVSPropertyOp45
 70
     1
102
RTVSPropertyOp46
 70
     1
102
RTVSPropertyOp47
 70
     1
102
RTVSPropertyOp48
 70
     1
102
RTVSPropertyOp49
 70
     1
102
RTVSPropertyOp50
 70
     1
102
RTVSPropertyOp51
 70
     0
102
RTVSPropertyOp52
 70
     0
102
RTVSPropertyOp53
 70
     1
102
RTVSPropertyOp54
 70
     1
102
RTVSPropertyOp55
 70
     1
102
RTVSPropertyOp56
 70
     1
102
RTVSPropertyOp57
 70
     1
102
RTVSPost2010Prop28
280
     0
102
RTVSPost2010PropOp28
 70
     1
102
RTVSPost2010Prop29
280
     1
102
RTVSPost2010PropOp29
 70
     1
102
RTVSPost2010Prop30
280
     1
102
RTVSPost2010PropOp30
 70
     1
102
RTVSPost2010Prop31
280
     0
102
RTVSPost2010PropOp31
 70
     1
102
RTVSPost2010Prop32
280
     0
102
RTVSPost2010PropOp32
 70
     1
102
RTVSPost2010Prop33
280
     0
102
RTVSPost2010PropOp33
 70
     1
102
RTVSPost2010Prop34
280
     0
102
RTVSPost2010PropOp34
 70
     1
102
RTVSPost2010Prop35
280
     0
102
RTVSPost2010PropOp35
 70
     1
102
RTVSPost2010Prop36
280
     0
102
RTVSPost2010PropOp36
 70
     1
102
RTVSPost2010Prop37
 90
       50
102
RTVSPost2010PropOp37
 70
     1
102
RTVSPost2010Prop38
140
0.0
102
RTVSPost2010PropOp38
 70
     1
102
RTVSPost2010Prop39
140
1.0
102
RTVSPost2010PropOp39
 70
     1
102
RTVSPost2010Prop40
 90
        0
102
RTVSPost2010PropOp40
 70
     1
102
RTVSPost2010Prop41ColorIndex
 90
       18
102
RTVSPost2010Prop41ColorRGB
 90
        0
102
RTVSPost2010PropOp41
 70
     1
102
RTVSPost2010Prop42
 90
       50
102
RTVSPost2010PropOp42
 70
     1
102
RTVSPost2010Prop43
 90
        3
102
RTVSPost2010PropOp43
 70
     1
102
RTVSPost2010Prop44ColorIndex
 90
        5
102
RTVSPost2010Prop44ColorRGB
 90
      255
102
RTVSPost2010PropOp44
 70
     1
102
RTVSPost2010Prop45
280
     0
102
RTVSPost2010PropOp45
 70
     1
102
RTVSPost2010Prop46
 90
       50
102
RTVSPost2010PropOp46
 70
     1
102
RTVSPost2010Prop47
 90
       50
102
RTVSPost2010PropOp47
 70
     1
102
RTVSPost2010Prop48
 90
       50
102
RTVSPost2010PropOp48
 70
     1
102
RTVSPost2010Prop49
280
     0
102
RTVSPost2010PropOp49
 70
     1
102
RTVSPost2010Prop50
 90
       50
102
RTVSPost2010PropOp50
 70
     1
102
RTVSPost2010Prop51ColorIndex
 90
      256
102
RTVSPost2010Prop51ColorRGB
 90
-16777216
102
RTVSPost2010PropOp51
 70
     0
102
RTVSPost2010Prop52
140
1.0
102
RTVSPost2010PropOp52
 70
     0
102
RTVSPost2010Prop53
 90
        2
102
RTVSPost2010PropOp53
 70
     1
102
RTVSPost2010Prop54
  1
strokes_ogs.tif
102
RTVSPost2010PropOp54
 70
     1
102
RTVSPost2010Prop55
280
     0
102
RTVSPost2010PropOp55
 70
     1
102
RTVSPost2010Prop56
140
1.0
102
RTVSPost2010PropOp56
 70
     1
102
RTVSPost2010Prop57
140
1.0
102
RTVSPost2010PropOp57
 70
     1
  0
XRECORD
  5
305
102
{ACAD_REACTORS
330
304
102
}
330
304
100
AcDbXrecord
280
     1
102
RTVSPropertyOp0
 70
     1
102
RTVSPropertyOp1
 70
     1
102
RTVSPropertyOp2
 70
     1
102
RTVSPropertyOp3
 70
     1
102
RTVSPropertyOp4
 70
     1
102
RTVSPropertyOp5
 70
     1
102
RTVSPropertyOp6
 70
     1
102
RTVSPropertyOp7
 70
     1
102
RTVSPropertyOp8
 70
     1
102
RTVSPropertyOp9
 70
     1
102
RTVSPropertyOp10
 70
     1
102
RTVSPropertyOp11
 70
     1
102
RTVSPropertyOp12
 70
     1
102
RTVSPropertyOp13
 70
     1
102
RTVSPropertyOp14
 70
     1
102
RTVSPropertyOp15
 70
     1
102
RTVSPropertyOp16
 70
     1
102
RTVSPropertyOp17
 70
     1
102
RTVSPropertyOp18
 70
     1
102
RTVSPropertyOp19
 70
     1
102
RTVSPropertyOp20
 70
     1
102
RTVSPropertyOp21
 70
     1
102
RTVSPropertyOp22
 70
     1
102
RTVSPropertyOp23
 70
     1
102
RTVSPropertyOp24
 70
     1
102
RTVSPropertyOp25
 70
     1
102
RTVSPropertyOp26
 70
     1
102
RTVSPropertyOp27
 70
     1
102
RTVSPropertyOp28
 70
     1
102
RTVSPropertyOp29
 70
     1
102
RTVSPropertyOp30
 70
     1
102
RTVSPropertyOp31
 70
     1
102
RTVSPropertyOp32
 70
     1
102
RTVSPropertyOp33
 70
     1
102
RTVSPropertyOp34
 70
     1
102
RTVSPropertyOp35
 70
     1
102
RTVSPropertyOp36
 70
     1
102
RTVSPropertyOp37
 70
     1
102
RTVSPropertyOp38
 70
     1
102
RTVSPropertyOp39
 70
     1
102
RTVSPropertyOp40
 70
     1
102
RTVSPropertyOp41
 70
     1
102
RTVSPropertyOp42
 70
     1
102
RTVSPropertyOp43
 70
     1
102
RTVSPropertyOp44
 70
     1
102
RTVSPropertyOp45
 70
     1
102
RTVSPropertyOp46
 70
     1
102
RTVSPropertyOp47
 70
     1
102
RTVSPropertyOp48
 70
     1
102
RTVSPropertyOp49
 70
     1
102
RTVSPropertyOp50
 70
     1
102
RTVSPropertyOp51
 70
     0
102
RTVSPropertyOp52
 70
     0
102
RTVSPropertyOp53
 70
     1
102
RTVSPropertyOp54
 70
     1
102
RTVSPropertyOp55
 70
     1
102
RTVSPropertyOp56
 70
     1
102
RTVSPropertyOp57
 70
     1
102
RTVSPost2010Prop28
280
     0
102
RTVSPost2010PropOp28
 70
     1
102
RTVSPost2010Prop29
280
     1
102
RTVSPost2010PropOp29
 70
     1
102
RTVSPost2010Prop30
280
     1
102
RTVSPost2010PropOp30
 70
     1
102
RTVSPost2010Prop31
280
     0
102
RTVSPost2010PropOp31
 70
     1
102
RTVSPost2010Prop32
280
     0
102
RTVSPost2010PropOp32
 70
     1
102
RTVSPost2010Prop33
280
     0
102
RTVSPost2010PropOp33
 70
     1
102
RTVSPost2010Prop34
280
     0
102
RTVSPost2010PropOp34
 70
     1
102
RTVSPost2010Prop35
280
     0
102
RTVSPost2010PropOp35
 70
     1
102
RTVSPost2010Prop36
280
     0
102
RTVSPost2010PropOp36
 70
     1
102
RTVSPost2010Prop37
 90
       50
102
RTVSPost2010PropOp37
 70
     1
102
RTVSPost2010Prop38
140
0.0
102
RTVSPost2010PropOp38
 70
     1
102
RTVSPost2010Prop39
140
1.0
102
RTVSPost2010PropOp39
 70
     1
102
RTVSPost2010Prop40
 90
        0
102
RTVSPost2010PropOp40
 70
     1
102
RTVSPost2010Prop41ColorIndex
 90
       18
102
RTVSPost2010Prop41ColorRGB
 90
        0
102
RTVSPost2010PropOp41
 70
     1
102
RTVSPost2010Prop42
 90
       50
102
RTVSPost2010PropOp42
 70
     1
102
RTVSPost2010Prop43
 90
        3
102
RTVSPost2010PropOp43
 70
     1
102
RTVSPost2010Prop44ColorIndex
 90
        5
102
RTVSPost2010Prop44ColorRGB
 90
      255
102
RTVSPost2010PropOp44
 70
     1
102
RTVSPost2010Prop45
280
     0
102
RTVSPost2010PropOp45
 70
     1
102
RTVSPost2010Prop46
 90
       50
102
RTVSPost2010PropOp46
 70
     1
102
RTVSPost2010Prop47
 90
       50
102
RTVSPost2010PropOp47
 70
     1
102
RTVSPost2010Prop48
 90
       50
102
RTVSPost2010PropOp48
 70
     1
102
RTVSPost2010Prop49
280
     0
102
RTVSPost2010PropOp49
 70
     1
102
RTVSPost2010Prop50
 90
       50
102
RTVSPost2010PropOp50
 70
     1
102
RTVSPost2010Prop51ColorIndex
 90
      256
102
RTVSPost2010Prop51ColorRGB
 90
-16777216
102
RTVSPost2010PropOp51
 70
     0
102
RTVSPost2010Prop52
140
1.0
102
RTVSPost2010PropOp52
 70
     0
102
RTVSPost2010Prop53
 90
        2
102
RTVSPost2010PropOp53
 70
     1
102
RTVSPost2010Prop54
  1
strokes_ogs.tif
102
RTVSPost2010PropOp54
 70
     1
102
RTVSPost2010Prop55
280
     0
102
RTVSPost2010PropOp55
 70
     1
102
RTVSPost2010Prop56
140
1.0
102
RTVSPost2010PropOp56
 70
     1
102
RTVSPost2010Prop57
140
1.0
102
RTVSPost2010PropOp57
 70
     1
  0
XRECORD
  5
315
102
{ACAD_REACTORS
330
314
102
}
330
314
100
AcDbXrecord
280
     1
102
RTVSPropertyOp0
 70
     0
102
RTVSPropertyOp1
 70
     0
102
RTVSPropertyOp2
 70
     0
102
RTVSPropertyOp3
 70
     0
102
RTVSPropertyOp4
 70
     0
102
RTVSPropertyOp5
 70
     0
102
RTVSPropertyOp6
 70
     0
102
RTVSPropertyOp7
 70
     0
102
RTVSPropertyOp8
 70
     0
102
RTVSPropertyOp9
 70
     0
102
RTVSPropertyOp10
 70
     0
102
RTVSPropertyOp11
 70
     0
102
RTVSPropertyOp12
 70
     0
102
RTVSPropertyOp13
 70
     0
102
RTVSPropertyOp14
 70
     2
102
RTVSPropertyOp15
 70
     0
102
RTVSPropertyOp16
 70
     0
102
RTVSPropertyOp17
 70
     0
102
RTVSPropertyOp18
 70
     0
102
RTVSPropertyOp19
 70
     0
102
RTVSPropertyOp20
 70
     0
102
RTVSPropertyOp21
 70
     0
102
RTVSPropertyOp22
 70
     0
102
RTVSPropertyOp23
 70
     0
102
RTVSPropertyOp24
 70
     0
102
RTVSPropertyOp25
 70
     0
102
RTVSPropertyOp26
 70
     0
102
RTVSPropertyOp27
 70
     0
102
RTVSPropertyOp28
 70
     0
102
RTVSPropertyOp29
 70
     0
102
RTVSPropertyOp30
 70
     0
102
RTVSPropertyOp31
 70
     0
102
RTVSPropertyOp32
 70
     0
102
RTVSPropertyOp33
 70
     0
102
RTVSPropertyOp34
 70
     0
102
RTVSPropertyOp35
 70
     0
102
RTVSPropertyOp36
 70
     0
102
RTVSPropertyOp37
 70
     0
102
RTVSPropertyOp38
 70
     0
102
RTVSPropertyOp39
 70
     0
102
RTVSPropertyOp40
 70
     0
102
RTVSPropertyOp41
 70
     0
102
RTVSPropertyOp42
 70
     0
102
RTVSPropertyOp43
 70
     0
102
RTVSPropertyOp44
 70
     0
102
RTVSPropertyOp45
 70
     0
102
RTVSPropertyOp46
 70
     0
102
RTVSPropertyOp47
 70
     0
102
RTVSPropertyOp48
 70
     0
102
RTVSPropertyOp49
 70
     0
102
RTVSPropertyOp50
 70
     0
102
RTVSPropertyOp51
 70
     0
102
RTVSPropertyOp52
 70
     0
102
RTVSPropertyOp53
 70
     0
102
RTVSPropertyOp54
 70
     0
102
RTVSPropertyOp55
 70
     0
102
RTVSPropertyOp56
 70
     0
102
RTVSPropertyOp57
 70
     0
102
RTVSPost2010Prop28
280
     0
102
RTVSPost2010PropOp28
 70
     0
102
RTVSPost2010Prop29
280
     1
102
RTVSPost2010PropOp29
 70
     0
102
RTVSPost2010Prop30
280
     1
102
RTVSPost2010PropOp30
 70
     0
102
RTVSPost2010Prop31
280
     0
102
RTVSPost2010PropOp31
 70
     0
102
RTVSPost2010Prop32
280
     0
102
RTVSPost2010PropOp32
 70
     0
102
RTVSPost2010Prop33
280
     0
102
RTVSPost2010PropOp33
 70
     0
102
RTVSPost2010Prop34
280
     0
102
RTVSPost2010PropOp34
 70
     0
102
RTVSPost2010Prop35
280
     0
102
RTVSPost2010PropOp35
 70
     0
102
RTVSPost2010Prop36
280
     0
102
RTVSPost2010PropOp36
 70
     0
102
RTVSPost2010Prop37
 90
       50
102
RTVSPost2010PropOp37
 70
     0
102
RTVSPost2010Prop38
140
0.0
102
RTVSPost2010PropOp38
 70
     0
102
RTVSPost2010Prop39
140
1.0
102
RTVSPost2010PropOp39
 70
     0
102
RTVSPost2010Prop40
 90
        0
102
RTVSPost2010PropOp40
 70
     0
102
RTVSPost2010Prop41ColorIndex
 90
       18
102
RTVSPost2010Prop41ColorRGB
 90
        0
102
RTVSPost2010PropOp41
 70
     0
102
RTVSPost2010Prop42
 90
       50
102
RTVSPost2010PropOp42
 70
     0
102
RTVSPost2010Prop43
 90
        3
102
RTVSPost2010PropOp43
 70
     0
102
RTVSPost2010Prop44ColorIndex
 90
        5
102
RTVSPost2010Prop44ColorRGB
 90
      255
102
RTVSPost2010PropOp44
 70
     0
102
RTVSPost2010Prop45
280
     0
102
RTVSPost2010PropOp45
 70
     0
102
RTVSPost2010Prop46
 90
       50
102
RTVSPost2010PropOp46
 70
     0
102
RTVSPost2010Prop47
 90
       50
102
RTVSPost2010PropOp47
 70
     0
102
RTVSPost2010Prop48
 90
       50
102
RTVSPost2010PropOp48
 70
     0
102
RTVSPost2010Prop49
280
     0
102
RTVSPost2010PropOp49
 70
     0
102
RTVSPost2010Prop50
 90
       50
102
RTVSPost2010PropOp50
 70
     0
102
RTVSPost2010Prop51ColorIndex
 90
      256
102
RTVSPost2010Prop51ColorRGB
 90
-16777216
102
RTVSPost2010PropOp51
 70
     0
102
RTVSPost2010Prop52
140
1.0
102
RTVSPost2010PropOp52
 70
     0
102
RTVSPost2010Prop53
 90
        2
102
RTVSPost2010PropOp53
 70
     0
102
RTVSPost2010Prop54
  1
strokes_ogs.tif
102
RTVSPost2010PropOp54
 70
     0
102
RTVSPost2010Prop55
280
     0
102
RTVSPost2010PropOp55
 70
     0
102
RTVSPost2010Prop56
140
1.0
102
RTVSPost2010PropOp56
 70
     0
102
RTVSPost2010Prop57
140
1.0
102
RTVSPost2010PropOp57
 70
     0
  0
XRECORD
  5
30D
102
{ACAD_REACTORS
330
30C
102
}
330
30C
100
AcDbXrecord
280
     1
102
RTVSPropertyOp0
 70
     1
102
RTVSPropertyOp1
 70
     1
102
RTVSPropertyOp2
 70
     1
102
RTVSPropertyOp3
 70
     1
102
RTVSPropertyOp4
 70
     1
102
RTVSPropertyOp5
 70
     1
102
RTVSPropertyOp6
 70
     1
102
RTVSPropertyOp7
 70
     1
102
RTVSPropertyOp8
 70
     1
102
RTVSPropertyOp9
 70
     1
102
RTVSPropertyOp10
 70
     1
102
RTVSPropertyOp11
 70
     1
102
RTVSPropertyOp12
 70
     1
102
RTVSPropertyOp13
 70
     1
102
RTVSPropertyOp14
 70
     1
102
RTVSPropertyOp15
 70
     1
102
RTVSPropertyOp16
 70
     1
102
RTVSPropertyOp17
 70
     1
102
RTVSPropertyOp18
 70
     1
102
RTVSPropertyOp19
 70
     1
102
RTVSPropertyOp20
 70
     1
102
RTVSPropertyOp21
 70
     1
102
RTVSPropertyOp22
 70
     1
102
RTVSPropertyOp23
 70
     1
102
RTVSPropertyOp24
 70
     1
102
RTVSPropertyOp25
 70
     1
102
RTVSPropertyOp26
 70
     1
102
RTVSPropertyOp27
 70
     1
102
RTVSPropertyOp28
 70
     1
102
RTVSPropertyOp29
 70
     1
102
RTVSPropertyOp30
 70
     1
102
RTVSPropertyOp31
 70
     1
102
RTVSPropertyOp32
 70
     1
102
RTVSPropertyOp33
 70
     1
102
RTVSPropertyOp34
 70
     1
102
RTVSPropertyOp35
 70
     1
102
RTVSPropertyOp36
 70
     1
102
RTVSPropertyOp37
 70
     1
102
RTVSPropertyOp38
 70
     1
102
RTVSPropertyOp39
 70
     1
102
RTVSPropertyOp40
 70
     1
102
RTVSPropertyOp41
 70
     1
102
RTVSPropertyOp42
 70
     1
102
RTVSPropertyOp43
 70
     1
102
RTVSPropertyOp44
 70
     1
102
RTVSPropertyOp45
 70
     1
102
RTVSPropertyOp46
 70
     1
102
RTVSPropertyOp47
 70
     1
102
RTVSPropertyOp48
 70
     1
102
RTVSPropertyOp49
 70
     1
102
RTVSPropertyOp50
 70
     1
102
RTVSPropertyOp51
 70
     0
102
RTVSPropertyOp52
 70
     0
102
RTVSPropertyOp53
 70
     1
102
RTVSPropertyOp54
 70
     1
102
RTVSPropertyOp55
 70
     1
102
RTVSPropertyOp56
 70
     1
102
RTVSPropertyOp57
 70
     1
102
RTVSPost2010Prop28
280
     0
102
RTVSPost2010PropOp28
 70
     1
102
RTVSPost2010Prop29
280
     1
102
RTVSPost2010PropOp29
 70
     1
102
RTVSPost2010Prop30
280
     1
102
RTVSPost2010PropOp30
 70
     1
102
RTVSPost2010Prop31
280
     0
102
RTVSPost2010PropOp31
 70
     1
102
RTVSPost2010Prop32
280
     0
102
RTVSPost2010PropOp32
 70
     1
102
RTVSPost2010Prop33
280
     0
102
RTVSPost2010PropOp33
 70
     1
102
RTVSPost2010Prop34
280
     0
102
RTVSPost2010PropOp34
 70
     1
102
RTVSPost2010Prop35
280
     0
102
RTVSPost2010PropOp35
 70
     1
102
RTVSPost2010Prop36
280
     0
102
RTVSPost2010PropOp36
 70
     1
102
RTVSPost2010Prop37
 90
       50
102
RTVSPost2010PropOp37
 70
     1
102
RTVSPost2010Prop38
140
0.0
102
RTVSPost2010PropOp38
 70
     1
102
RTVSPost2010Prop39
140
1.0
102
RTVSPost2010PropOp39
 70
     1
102
RTVSPost2010Prop40
 90
        0
102
RTVSPost2010PropOp40
 70
     1
102
RTVSPost2010Prop41ColorIndex
 90
       18
102
RTVSPost2010Prop41ColorRGB
 90
        0
102
RTVSPost2010PropOp41
 70
     1
102
RTVSPost2010Prop42
 90
       50
102
RTVSPost2010PropOp42
 70
     1
102
RTVSPost2010Prop43
 90
        3
102
RTVSPost2010PropOp43
 70
     1
102
RTVSPost2010Prop44ColorIndex
 90
        5
102
RTVSPost2010Prop44ColorRGB
 90
      255
102
RTVSPost2010PropOp44
 70
     1
102
RTVSPost2010Prop45
280
     0
102
RTVSPost2010PropOp45
 70
     1
102
RTVSPost2010Prop46
 90
       50
102
RTVSPost2010PropOp46
 70
     1
102
RTVSPost2010Prop47
 90
       50
102
RTVSPost2010PropOp47
 70
     1
102
RTVSPost2010Prop48
 90
       50
102
RTVSPost2010PropOp48
 70
     1
102
RTVSPost2010Prop49
280
     0
102
RTVSPost2010PropOp49
 70
     1
102
RTVSPost2010Prop50
 90
       50
102
RTVSPost2010PropOp50
 70
     1
102
RTVSPost2010Prop51ColorIndex
 90
      256
102
RTVSPost2010Prop51ColorRGB
 90
-16777216
102
RTVSPost2010PropOp51
 70
     0
102
RTVSPost2010Prop52
140
1.0
102
RTVSPost2010PropOp52
 70
     0
102
RTVSPost2010Prop53
 90
        2
102
RTVSPost2010PropOp53
 70
     1
102
RTVSPost2010Prop54
  1
strokes_ogs.tif
102
RTVSPost2010PropOp54
 70
     1
102
RTVSPost2010Prop55
280
     0
102
RTVSPost2010PropOp55
 70
     1
102
RTVSPost2010Prop56
140
1.0
102
RTVSPost2010PropOp56
 70
     1
102
RTVSPost2010Prop57
140
1.0
102
RTVSPost2010PropOp57
 70
     1
  0
XRECORD
  5
2F1
102
{ACAD_REACTORS
330
2F0
102
}
330
2F0
100
AcDbXrecord
280
     1
102
RTVSPropertyOp0
 70
     1
102
RTVSPropertyOp1
 70
     1
102
RTVSPropertyOp2
 70
     1
102
RTVSPropertyOp3
 70
     1
102
RTVSPropertyOp4
 70
     1
102
RTVSPropertyOp5
 70
     1
102
RTVSPropertyOp6
 70
     1
102
RTVSPropertyOp7
 70
     1
102
RTVSPropertyOp8
 70
     1
102
RTVSPropertyOp9
 70
     1
102
RTVSPropertyOp10
 70
     1
102
RTVSPropertyOp11
 70
     1
102
RTVSPropertyOp12
 70
     1
102
RTVSPropertyOp13
 70
     1
102
RTVSPropertyOp14
 70
     1
102
RTVSPropertyOp15
 70
     1
102
RTVSPropertyOp16
 70
     1
102
RTVSPropertyOp17
 70
     1
102
RTVSPropertyOp18
 70
     1
102
RTVSPropertyOp19
 70
     1
102
RTVSPropertyOp20
 70
     1
102
RTVSPropertyOp21
 70
     1
102
RTVSPropertyOp22
 70
     1
102
RTVSPropertyOp23
 70
     1
102
RTVSPropertyOp24
 70
     1
102
RTVSPropertyOp25
 70
     1
102
RTVSPropertyOp26
 70
     1
102
RTVSPropertyOp27
 70
     1
102
RTVSPropertyOp28
 70
     1
102
RTVSPropertyOp29
 70
     1
102
RTVSPropertyOp30
 70
     1
102
RTVSPropertyOp31
 70
     1
102
RTVSPropertyOp32
 70
     1
102
RTVSPropertyOp33
 70
     1
102
RTVSPropertyOp34
 70
     1
102
RTVSPropertyOp35
 70
     1
102
RTVSPropertyOp36
 70
     1
102
RTVSPropertyOp37
 70
     1
102
RTVSPropertyOp38
 70
     1
102
RTVSPropertyOp39
 70
     1
102
RTVSPropertyOp40
 70
     1
102
RTVSPropertyOp41
 70
     1
102
RTVSPropertyOp42
 70
     1
102
RTVSPropertyOp43
 70
     1
102
RTVSPropertyOp44
 70
     1
102
RTVSPropertyOp45
 70
     1
102
RTVSPropertyOp46
 70
     1
102
RTVSPropertyOp47
 70
     1
102
RTVSPropertyOp48
 70
     1
102
RTVSPropertyOp49
 70
     1
102
RTVSPropertyOp50
 70
     1
102
RTVSPropertyOp51
 70
     0
102
RTVSPropertyOp52
 70
     0
102
RTVSPropertyOp53
 70
     1
102
RTVSPropertyOp54
 70
     1
102
RTVSPropertyOp55
 70
     1
102
RTVSPropertyOp56
 70
     1
102
RTVSPropertyOp57
 70
     1
102
RTVSPost2010Prop28
280
     0
102
RTVSPost2010PropOp28
 70
     1
102
RTVSPost2010Prop29
280
     1
102
RTVSPost2010PropOp29
 70
     1
102
RTVSPost2010Prop30
280
     1
102
RTVSPost2010PropOp30
 70
     1
102
RTVSPost2010Prop31
280
     0
102
RTVSPost2010PropOp31
 70
     1
102
RTVSPost2010Prop32
280
     0
102
RTVSPost2010PropOp32
 70
     1
102
RTVSPost2010Prop33
280
     0
102
RTVSPost2010PropOp33
 70
     1
102
RTVSPost2010Prop34
280
     0
102
RTVSPost2010PropOp34
 70
     1
102
RTVSPost2010Prop35
280
     0
102
RTVSPost2010PropOp35
 70
     1
102
RTVSPost2010Prop36
280
     0
102
RTVSPost2010PropOp36
 70
     1
102
RTVSPost2010Prop37
 90
       50
102
RTVSPost2010PropOp37
 70
     1
102
RTVSPost2010Prop38
140
0.0
102
RTVSPost2010PropOp38
 70
     1
102
RTVSPost2010Prop39
140
1.0
102
RTVSPost2010PropOp39
 70
     1
102
RTVSPost2010Prop40
 90
        0
102
RTVSPost2010PropOp40
 70
     1
102
RTVSPost2010Prop41ColorIndex
 90
       18
102
RTVSPost2010Prop41ColorRGB
 90
        0
102
RTVSPost2010PropOp41
 70
     1
102
RTVSPost2010Prop42
 90
       50
102
RTVSPost2010PropOp42
 70
     1
102
RTVSPost2010Prop43
 90
        3
102
RTVSPost2010PropOp43
 70
     1
102
RTVSPost2010Prop44ColorIndex
 90
        5
102
RTVSPost2010Prop44ColorRGB
 90
      255
102
RTVSPost2010PropOp44
 70
     1
102
RTVSPost2010Prop45
280
     0
102
RTVSPost2010PropOp45
 70
     1
102
RTVSPost2010Prop46
 90
       50
102
RTVSPost2010PropOp46
 70
     1
102
RTVSPost2010Prop47
 90
       50
102
RTVSPost2010PropOp47
 70
     1
102
RTVSPost2010Prop48
 90
       50
102
RTVSPost2010PropOp48
 70
     1
102
RTVSPost2010Prop49
280
     0
102
RTVSPost2010PropOp49
 70
     1
102
RTVSPost2010Prop50
 90
       50
102
RTVSPost2010PropOp50
 70
     1
102
RTVSPost2010Prop51ColorIndex
 90
      256
102
RTVSPost2010Prop51ColorRGB
 90
-16777216
102
RTVSPost2010PropOp51
 70
     0
102
RTVSPost2010Prop52
140
1.0
102
RTVSPost2010PropOp52
 70
     0
102
RTVSPost2010Prop53
 90
        2
102
RTVSPost2010PropOp53
 70
     1
102
RTVSPost2010Prop54
  1
strokes_ogs.tif
102
RTVSPost2010PropOp54
 70
     1
102
RTVSPost2010Prop55
280
     0
102
RTVSPost2010PropOp55
 70
     1
102
RTVSPost2010Prop56
140
1.0
102
RTVSPost2010PropOp56
 70
     1
102
RTVSPost2010Prop57
140
1.0
102
RTVSPost2010PropOp57
 70
     1
  0
XRECORD
  5
2F3
102
{ACAD_REACTORS
330
2F2
102
}
330
2F2
100
AcDbXrecord
280
     1
102
RTVSPropertyOp0
 70
     1
102
RTVSPropertyOp1
 70
     1
102
RTVSPropertyOp2
 70
     1
102
RTVSPropertyOp3
 70
     1
102
RTVSPropertyOp4
 70
     1
102
RTVSPropertyOp5
 70
     1
102
RTVSPropertyOp6
 70
     1
102
RTVSPropertyOp7
 70
     1
102
RTVSPropertyOp8
 70
     1
102
RTVSPropertyOp9
 70
     1
102
RTVSPropertyOp10
 70
     1
102
RTVSPropertyOp11
 70
     1
102
RTVSPropertyOp12
 70
     1
102
RTVSPropertyOp13
 70
     1
102
RTVSPropertyOp14
 70
     1
102
RTVSPropertyOp15
 70
     1
102
RTVSPropertyOp16
 70
     1
102
RTVSPropertyOp17
 70
     1
102
RTVSPropertyOp18
 70
     1
102
RTVSPropertyOp19
 70
     1
102
RTVSPropertyOp20
 70
     1
102
RTVSPropertyOp21
 70
     1
102
RTVSPropertyOp22
 70
     1
102
RTVSPropertyOp23
 70
     1
102
RTVSPropertyOp24
 70
     1
102
RTVSPropertyOp25
 70
     1
102
RTVSPropertyOp26
 70
     1
102
RTVSPropertyOp27
 70
     1
102
RTVSPropertyOp28
 70
     1
102
RTVSPropertyOp29
 70
     1
102
RTVSPropertyOp30
 70
     1
102
RTVSPropertyOp31
 70
     1
102
RTVSPropertyOp32
 70
     1
102
RTVSPropertyOp33
 70
     1
102
RTVSPropertyOp34
 70
     1
102
RTVSPropertyOp35
 70
     1
102
RTVSPropertyOp36
 70
     1
102
RTVSPropertyOp37
 70
     1
102
RTVSPropertyOp38
 70
     1
102
RTVSPropertyOp39
 70
     1
102
RTVSPropertyOp40
 70
     1
102
RTVSPropertyOp41
 70
     1
102
RTVSPropertyOp42
 70
     1
102
RTVSPropertyOp43
 70
     1
102
RTVSPropertyOp44
 70
     1
102
RTVSPropertyOp45
 70
     1
102
RTVSPropertyOp46
 70
     1
102
RTVSPropertyOp47
 70
     1
102
RTVSPropertyOp48
 70
     1
102
RTVSPropertyOp49
 70
     1
102
RTVSPropertyOp50
 70
     1
102
RTVSPropertyOp51
 70
     0
102
RTVSPropertyOp52
 70
     0
102
RTVSPropertyOp53
 70
     1
102
RTVSPropertyOp54
 70
     1
102
RTVSPropertyOp55
 70
     1
102
RTVSPropertyOp56
 70
     1
102
RTVSPropertyOp57
 70
     1
102
RTVSPost2010Prop28
280
     0
102
RTVSPost2010PropOp28
 70
     1
102
RTVSPost2010Prop29
280
     1
102
RTVSPost2010PropOp29
 70
     1
102
RTVSPost2010Prop30
280
     1
102
RTVSPost2010PropOp30
 70
     1
102
RTVSPost2010Prop31
280
     0
102
RTVSPost2010PropOp31
 70
     1
102
RTVSPost2010Prop32
280
     0
102
RTVSPost2010PropOp32
 70
     1
102
RTVSPost2010Prop33
280
     0
102
RTVSPost2010PropOp33
 70
     1
102
RTVSPost2010Prop34
280
     0
102
RTVSPost2010PropOp34
 70
     1
102
RTVSPost2010Prop35
280
     0
102
RTVSPost2010PropOp35
 70
     1
102
RTVSPost2010Prop36
280
     0
102
RTVSPost2010PropOp36
 70
     1
102
RTVSPost2010Prop37
 90
       50
102
RTVSPost2010PropOp37
 70
     1
102
RTVSPost2010Prop38
140
0.0
102
RTVSPost2010PropOp38
 70
     1
102
RTVSPost2010Prop39
140
1.0
102
RTVSPost2010PropOp39
 70
     1
102
RTVSPost2010Prop40
 90
        0
102
RTVSPost2010PropOp40
 70
     1
102
RTVSPost2010Prop41ColorIndex
 90
       18
102
RTVSPost2010Prop41ColorRGB
 90
        0
102
RTVSPost2010PropOp41
 70
     1
102
RTVSPost2010Prop42
 90
       50
102
RTVSPost2010PropOp42
 70
     1
102
RTVSPost2010Prop43
 90
        3
102
RTVSPost2010PropOp43
 70
     1
102
RTVSPost2010Prop44ColorIndex
 90
        5
102
RTVSPost2010Prop44ColorRGB
 90
      255
102
RTVSPost2010PropOp44
 70
     1
102
RTVSPost2010Prop45
280
     0
102
RTVSPost2010PropOp45
 70
     1
102
RTVSPost2010Prop46
 90
       50
102
RTVSPost2010PropOp46
 70
     1
102
RTVSPost2010Prop47
 90
       50
102
RTVSPost2010PropOp47
 70
     1
102
RTVSPost2010Prop48
 90
       50
102
RTVSPost2010PropOp48
 70
     1
102
RTVSPost2010Prop49
280
     0
102
RTVSPost2010PropOp49
 70
     1
102
RTVSPost2010Prop50
 90
       50
102
RTVSPost2010PropOp50
 70
     1
102
RTVSPost2010Prop51ColorIndex
 90
      256
102
RTVSPost2010Prop51ColorRGB
 90
-16777216
102
RTVSPost2010PropOp51
 70
     0
102
RTVSPost2010Prop52
140
1.0
102
RTVSPost2010PropOp52
 70
     0
102
RTVSPost2010Prop53
 90
        2
102
RTVSPost2010PropOp53
 70
     1
102
RTVSPost2010Prop54
  1
strokes_ogs.tif
102
RTVSPost2010PropOp54
 70
     1
102
RTVSPost2010Prop55
280
     0
102
RTVSPost2010PropOp55
 70
     1
102
RTVSPost2010Prop56
140
1.0
102
RTVSPost2010PropOp56
 70
     1
102
RTVSPost2010Prop57
140
1.0
102
RTVSPost2010PropOp57
 70
     1
  0
XRECORD
  5
2F5
102
{ACAD_REACTORS
330
2F4
102
}
330
2F4
100
AcDbXrecord
280
     1
102
RTVSPropertyOp0
 70
     1
102
RTVSPropertyOp1
 70
     1
102
RTVSPropertyOp2
 70
     1
102
RTVSPropertyOp3
 70
     1
102
RTVSPropertyOp4
 70
     1
102
RTVSPropertyOp5
 70
     1
102
RTVSPropertyOp6
 70
     1
102
RTVSPropertyOp7
 70
     1
102
RTVSPropertyOp8
 70
     1
102
RTVSPropertyOp9
 70
     1
102
RTVSPropertyOp10
 70
     1
102
RTVSPropertyOp11
 70
     1
102
RTVSPropertyOp12
 70
     1
102
RTVSPropertyOp13
 70
     1
102
RTVSPropertyOp14
 70
     1
102
RTVSPropertyOp15
 70
     1
102
RTVSPropertyOp16
 70
     1
102
RTVSPropertyOp17
 70
     1
102
RTVSPropertyOp18
 70
     1
102
RTVSPropertyOp19
 70
     1
102
RTVSPropertyOp20
 70
     1
102
RTVSPropertyOp21
 70
     1
102
RTVSPropertyOp22
 70
     1
102
RTVSPropertyOp23
 70
     1
102
RTVSPropertyOp24
 70
     1
102
RTVSPropertyOp25
 70
     1
102
RTVSPropertyOp26
 70
     1
102
RTVSPropertyOp27
 70
     1
102
RTVSPropertyOp28
 70
     1
102
RTVSPropertyOp29
 70
     1
102
RTVSPropertyOp30
 70
     1
102
RTVSPropertyOp31
 70
     1
102
RTVSPropertyOp32
 70
     1
102
RTVSPropertyOp33
 70
     1
102
RTVSPropertyOp34
 70
     1
102
RTVSPropertyOp35
 70
     1
102
RTVSPropertyOp36
 70
     1
102
RTVSPropertyOp37
 70
     1
102
RTVSPropertyOp38
 70
     1
102
RTVSPropertyOp39
 70
     1
102
RTVSPropertyOp40
 70
     1
102
RTVSPropertyOp41
 70
     1
102
RTVSPropertyOp42
 70
     1
102
RTVSPropertyOp43
 70
     1
102
RTVSPropertyOp44
 70
     1
102
RTVSPropertyOp45
 70
     1
102
RTVSPropertyOp46
 70
     1
102
RTVSPropertyOp47
 70
     1
102
RTVSPropertyOp48
 70
     1
102
RTVSPropertyOp49
 70
     1
102
RTVSPropertyOp50
 70
     1
102
RTVSPropertyOp51
 70
     0
102
RTVSPropertyOp52
 70
     0
102
RTVSPropertyOp53
 70
     1
102
RTVSPropertyOp54
 70
     1
102
RTVSPropertyOp55
 70
     1
102
RTVSPropertyOp56
 70
     1
102
RTVSPropertyOp57
 70
     1
102
RTVSPost2010Prop28
280
     0
102
RTVSPost2010PropOp28
 70
     1
102
RTVSPost2010Prop29
280
     1
102
RTVSPost2010PropOp29
 70
     1
102
RTVSPost2010Prop30
280
     1
102
RTVSPost2010PropOp30
 70
     1
102
RTVSPost2010Prop31
280
     0
102
RTVSPost2010PropOp31
 70
     1
102
RTVSPost2010Prop32
280
     0
102
RTVSPost2010PropOp32
 70
     1
102
RTVSPost2010Prop33
280
     0
102
RTVSPost2010PropOp33
 70
     1
102
RTVSPost2010Prop34
280
     0
102
RTVSPost2010PropOp34
 70
     1
102
RTVSPost2010Prop35
280
     0
102
RTVSPost2010PropOp35
 70
     1
102
RTVSPost2010Prop36
280
     0
102
RTVSPost2010PropOp36
 70
     1
102
RTVSPost2010Prop37
 90
       50
102
RTVSPost2010PropOp37
 70
     1
102
RTVSPost2010Prop38
140
0.0
102
RTVSPost2010PropOp38
 70
     1
102
RTVSPost2010Prop39
140
1.0
102
RTVSPost2010PropOp39
 70
     1
102
RTVSPost2010Prop40
 90
        0
102
RTVSPost2010PropOp40
 70
     1
102
RTVSPost2010Prop41ColorIndex
 90
       18
102
RTVSPost2010Prop41ColorRGB
 90
        0
102
RTVSPost2010PropOp41
 70
     1
102
RTVSPost2010Prop42
 90
       50
102
RTVSPost2010PropOp42
 70
     1
102
RTVSPost2010Prop43
 90
        3
102
RTVSPost2010PropOp43
 70
     1
102
RTVSPost2010Prop44ColorIndex
 90
        5
102
RTVSPost2010Prop44ColorRGB
 90
      255
102
RTVSPost2010PropOp44
 70
     1
102
RTVSPost2010Prop45
280
     0
102
RTVSPost2010PropOp45
 70
     1
102
RTVSPost2010Prop46
 90
       50
102
RTVSPost2010PropOp46
 70
     1
102
RTVSPost2010Prop47
 90
       50
102
RTVSPost2010PropOp47
 70
     1
102
RTVSPost2010Prop48
 90
       50
102
RTVSPost2010PropOp48
 70
     1
102
RTVSPost2010Prop49
280
     0
102
RTVSPost2010PropOp49
 70
     1
102
RTVSPost2010Prop50
 90
       50
102
RTVSPost2010PropOp50
 70
     1
102
RTVSPost2010Prop51ColorIndex
 90
      256
102
RTVSPost2010Prop51ColorRGB
 90
-16777216
102
RTVSPost2010PropOp51
 70
     0
102
RTVSPost2010Prop52
140
1.0
102
RTVSPost2010PropOp52
 70
     0
102
RTVSPost2010Prop53
 90
        2
102
RTVSPost2010PropOp53
 70
     1
102
RTVSPost2010Prop54
  1
strokes_ogs.tif
102
RTVSPost2010PropOp54
 70
     1
102
RTVSPost2010Prop55
280
     0
102
RTVSPost2010PropOp55
 70
     1
102
RTVSPost2010Prop56
140
1.0
102
RTVSPost2010PropOp56
 70
     1
102
RTVSPost2010Prop57
140
1.0
102
RTVSPost2010PropOp57
 70
     1
  0
XRECORD
  5
2F7
102
{ACAD_REACTORS
330
2F6
102
}
330
2F6
100
AcDbXrecord
280
     1
102
RTVSPropertyOp0
 70
     1
102
RTVSPropertyOp1
 70
     1
102
RTVSPropertyOp2
 70
     1
102
RTVSPropertyOp3
 70
     1
102
RTVSPropertyOp4
 70
     1
102
RTVSPropertyOp5
 70
     1
102
RTVSPropertyOp6
 70
     1
102
RTVSPropertyOp7
 70
     1
102
RTVSPropertyOp8
 70
     1
102
RTVSPropertyOp9
 70
     1
102
RTVSPropertyOp10
 70
     1
102
RTVSPropertyOp11
 70
     1
102
RTVSPropertyOp12
 70
     1
102
RTVSPropertyOp13
 70
     1
102
RTVSPropertyOp14
 70
     1
102
RTVSPropertyOp15
 70
     1
102
RTVSPropertyOp16
 70
     1
102
RTVSPropertyOp17
 70
     1
102
RTVSPropertyOp18
 70
     1
102
RTVSPropertyOp19
 70
     1
102
RTVSPropertyOp20
 70
     1
102
RTVSPropertyOp21
 70
     1
102
RTVSPropertyOp22
 70
     1
102
RTVSPropertyOp23
 70
     1
102
RTVSPropertyOp24
 70
     1
102
RTVSPropertyOp25
 70
     1
102
RTVSPropertyOp26
 70
     1
102
RTVSPropertyOp27
 70
     1
102
RTVSPropertyOp28
 70
     1
102
RTVSPropertyOp29
 70
     1
102
RTVSPropertyOp30
 70
     1
102
RTVSPropertyOp31
 70
     1
102
RTVSPropertyOp32
 70
     1
102
RTVSPropertyOp33
 70
     1
102
RTVSPropertyOp34
 70
     1
102
RTVSPropertyOp35
 70
     1
102
RTVSPropertyOp36
 70
     1
102
RTVSPropertyOp37
 70
     1
102
RTVSPropertyOp38
 70
     1
102
RTVSPropertyOp39
 70
     1
102
RTVSPropertyOp40
 70
     1
102
RTVSPropertyOp41
 70
     1
102
RTVSPropertyOp42
 70
     1
102
RTVSPropertyOp43
 70
     1
102
RTVSPropertyOp44
 70
     1
102
RTVSPropertyOp45
 70
     1
102
RTVSPropertyOp46
 70
     1
102
RTVSPropertyOp47
 70
     1
102
RTVSPropertyOp48
 70
     1
102
RTVSPropertyOp49
 70
     1
102
RTVSPropertyOp50
 70
     1
102
RTVSPropertyOp51
 70
     0
102
RTVSPropertyOp52
 70
     0
102
RTVSPropertyOp53
 70
     1
102
RTVSPropertyOp54
 70
     1
102
RTVSPropertyOp55
 70
     1
102
RTVSPropertyOp56
 70
     1
102
RTVSPropertyOp57
 70
     1
102
RTVSPost2010Prop28
280
     0
102
RTVSPost2010PropOp28
 70
     1
102
RTVSPost2010Prop29
280
     1
102
RTVSPost2010PropOp29
 70
     1
102
RTVSPost2010Prop30
280
     1
102
RTVSPost2010PropOp30
 70
     1
102
RTVSPost2010Prop31
280
     0
102
RTVSPost2010PropOp31
 70
     1
102
RTVSPost2010Prop32
280
     0
102
RTVSPost2010PropOp32
 70
     1
102
RTVSPost2010Prop33
280
     0
102
RTVSPost2010PropOp33
 70
     1
102
RTVSPost2010Prop34
280
     0
102
RTVSPost2010PropOp34
 70
     1
102
RTVSPost2010Prop35
280
     0
102
RTVSPost2010PropOp35
 70
     1
102
RTVSPost2010Prop36
280
     0
102
RTVSPost2010PropOp36
 70
     1
102
RTVSPost2010Prop37
 90
       50
102
RTVSPost2010PropOp37
 70
     1
102
RTVSPost2010Prop38
140
0.0
102
RTVSPost2010PropOp38
 70
     1
102
RTVSPost2010Prop39
140
1.0
102
RTVSPost2010PropOp39
 70
     1
102
RTVSPost2010Prop40
 90
        0
102
RTVSPost2010PropOp40
 70
     1
102
RTVSPost2010Prop41ColorIndex
 90
       18
102
RTVSPost2010Prop41ColorRGB
 90
        0
102
RTVSPost2010PropOp41
 70
     1
102
RTVSPost2010Prop42
 90
       50
102
RTVSPost2010PropOp42
 70
     1
102
RTVSPost2010Prop43
 90
        3
102
RTVSPost2010PropOp43
 70
     1
102
RTVSPost2010Prop44ColorIndex
 90
        5
102
RTVSPost2010Prop44ColorRGB
 90
      255
102
RTVSPost2010PropOp44
 70
     1
102
RTVSPost2010Prop45
280
     0
102
RTVSPost2010PropOp45
 70
     1
102
RTVSPost2010Prop46
 90
       50
102
RTVSPost2010PropOp46
 70
     1
102
RTVSPost2010Prop47
 90
       50
102
RTVSPost2010PropOp47
 70
     1
102
RTVSPost2010Prop48
 90
       50
102
RTVSPost2010PropOp48
 70
     1
102
RTVSPost2010Prop49
280
     0
102
RTVSPost2010PropOp49
 70
     1
102
RTVSPost2010Prop50
 90
       50
102
RTVSPost2010PropOp50
 70
     1
102
RTVSPost2010Prop51ColorIndex
 90
      256
102
RTVSPost2010Prop51ColorRGB
 90
-16777216
102
RTVSPost2010PropOp51
 70
     0
102
RTVSPost2010Prop52
140
1.0
102
RTVSPost2010PropOp52
 70
     0
102
RTVSPost2010Prop53
 90
        2
102
RTVSPost2010PropOp53
 70
     1
102
RTVSPost2010Prop54
  1
strokes_ogs.tif
102
RTVSPost2010PropOp54
 70
     1
102
RTVSPost2010Prop55
280
     0
102
RTVSPost2010PropOp55
 70
     1
102
RTVSPost2010Prop56
140
1.0
102
RTVSPost2010PropOp56
 70
     1
102
RTVSPost2010Prop57
140
1.0
102
RTVSPost2010PropOp57
 70
     1
  0
XRECORD
  5
2FD
102
{ACAD_REACTORS
330
2FC
102
}
330
2FC
100
AcDbXrecord
280
     1
102
RTVSPropertyOp0
 70
     1
102
RTVSPropertyOp1
 70
     1
102
RTVSPropertyOp2
 70
     1
102
RTVSPropertyOp3
 70
     1
102
RTVSPropertyOp4
 70
     1
102
RTVSPropertyOp5
 70
     1
102
RTVSPropertyOp6
 70
     1
102
RTVSPropertyOp7
 70
     1
102
RTVSPropertyOp8
 70
     1
102
RTVSPropertyOp9
 70
     1
102
RTVSPropertyOp10
 70
     1
102
RTVSPropertyOp11
 70
     1
102
RTVSPropertyOp12
 70
     1
102
RTVSPropertyOp13
 70
     1
102
RTVSPropertyOp14
 70
     1
102
RTVSPropertyOp15
 70
     1
102
RTVSPropertyOp16
 70
     1
102
RTVSPropertyOp17
 70
     1
102
RTVSPropertyOp18
 70
     1
102
RTVSPropertyOp19
 70
     1
102
RTVSPropertyOp20
 70
     1
102
RTVSPropertyOp21
 70
     1
102
RTVSPropertyOp22
 70
     1
102
RTVSPropertyOp23
 70
     1
102
RTVSPropertyOp24
 70
     1
102
RTVSPropertyOp25
 70
     1
102
RTVSPropertyOp26
 70
     1
102
RTVSPropertyOp27
 70
     1
102
RTVSPropertyOp28
 70
     1
102
RTVSPropertyOp29
 70
     1
102
RTVSPropertyOp30
 70
     1
102
RTVSPropertyOp31
 70
     1
102
RTVSPropertyOp32
 70
     1
102
RTVSPropertyOp33
 70
     1
102
RTVSPropertyOp34
 70
     1
102
RTVSPropertyOp35
 70
     1
102
RTVSPropertyOp36
 70
     1
102
RTVSPropertyOp37
 70
     1
102
RTVSPropertyOp38
 70
     1
102
RTVSPropertyOp39
 70
     1
102
RTVSPropertyOp40
 70
     1
102
RTVSPropertyOp41
 70
     1
102
RTVSPropertyOp42
 70
     1
102
RTVSPropertyOp43
 70
     1
102
RTVSPropertyOp44
 70
     1
102
RTVSPropertyOp45
 70
     1
102
RTVSPropertyOp46
 70
     1
102
RTVSPropertyOp47
 70
     1
102
RTVSPropertyOp48
 70
     1
102
RTVSPropertyOp49
 70
     1
102
RTVSPropertyOp50
 70
     1
102
RTVSPropertyOp51
 70
     0
102
RTVSPropertyOp52
 70
     0
102
RTVSPropertyOp53
 70
     1
102
RTVSPropertyOp54
 70
     1
102
RTVSPropertyOp55
 70
     1
102
RTVSPropertyOp56
 70
     1
102
RTVSPropertyOp57
 70
     1
102
RTVSPost2010Prop28
280
     0
102
RTVSPost2010PropOp28
 70
     1
102
RTVSPost2010Prop29
280
     1
102
RTVSPost2010PropOp29
 70
     1
102
RTVSPost2010Prop30
280
     1
102
RTVSPost2010PropOp30
 70
     1
102
RTVSPost2010Prop31
280
     0
102
RTVSPost2010PropOp31
 70
     1
102
RTVSPost2010Prop32
280
     0
102
RTVSPost2010PropOp32
 70
     1
102
RTVSPost2010Prop33
280
     0
102
RTVSPost2010PropOp33
 70
     1
102
RTVSPost2010Prop34
280
     0
102
RTVSPost2010PropOp34
 70
     1
102
RTVSPost2010Prop35
280
     0
102
RTVSPost2010PropOp35
 70
     1
102
RTVSPost2010Prop36
280
     0
102
RTVSPost2010PropOp36
 70
     1
102
RTVSPost2010Prop37
 90
       50
102
RTVSPost2010PropOp37
 70
     1
102
RTVSPost2010Prop38
140
0.0
102
RTVSPost2010PropOp38
 70
     1
102
RTVSPost2010Prop39
140
1.0
102
RTVSPost2010PropOp39
 70
     1
102
RTVSPost2010Prop40
 90
        0
102
RTVSPost2010PropOp40
 70
     1
102
RTVSPost2010Prop41ColorIndex
 90
       18
102
RTVSPost2010Prop41ColorRGB
 90
        0
102
RTVSPost2010PropOp41
 70
     1
102
RTVSPost2010Prop42
 90
       50
102
RTVSPost2010PropOp42
 70
     1
102
RTVSPost2010Prop43
 90
        3
102
RTVSPost2010PropOp43
 70
     1
102
RTVSPost2010Prop44ColorIndex
 90
        5
102
RTVSPost2010Prop44ColorRGB
 90
      255
102
RTVSPost2010PropOp44
 70
     1
102
RTVSPost2010Prop45
280
     0
102
RTVSPost2010PropOp45
 70
     1
102
RTVSPost2010Prop46
 90
       50
102
RTVSPost2010PropOp46
 70
     1
102
RTVSPost2010Prop47
 90
       50
102
RTVSPost2010PropOp47
 70
     1
102
RTVSPost2010Prop48
 90
       50
102
RTVSPost2010PropOp48
 70
     1
102
RTVSPost2010Prop49
280
     0
102
RTVSPost2010PropOp49
 70
     1
102
RTVSPost2010Prop50
 90
       50
102
RTVSPost2010PropOp50
 70
     1
102
RTVSPost2010Prop51ColorIndex
 90
      256
102
RTVSPost2010Prop51ColorRGB
 90
-16777216
102
RTVSPost2010PropOp51
 70
     0
102
RTVSPost2010Prop52
140
1.0
102
RTVSPost2010PropOp52
 70
     0
102
RTVSPost2010Prop53
 90
        2
102
RTVSPost2010PropOp53
 70
     1
102
RTVSPost2010Prop54
  1
strokes_ogs.tif
102
RTVSPost2010PropOp54
 70
     1
102
RTVSPost2010Prop55
280
     0
102
RTVSPost2010PropOp55
 70
     1
102
RTVSPost2010Prop56
140
1.0
102
RTVSPost2010PropOp56
 70
     1
102
RTVSPost2010Prop57
140
1.0
102
RTVSPost2010PropOp57
 70
     1
  0
XRECORD
  5
311
102
{ACAD_REACTORS
330
310
102
}
330
310
100
AcDbXrecord
280
     1
102
RTVSPropertyOp0
 70
     0
102
RTVSPropertyOp1
 70
     0
102
RTVSPropertyOp2
 70
     0
102
RTVSPropertyOp3
 70
     0
102
RTVSPropertyOp4
 70
     0
102
RTVSPropertyOp5
 70
     0
102
RTVSPropertyOp6
 70
     0
102
RTVSPropertyOp7
 70
     0
102
RTVSPropertyOp8
 70
     0
102
RTVSPropertyOp9
 70
     0
102
RTVSPropertyOp10
 70
     0
102
RTVSPropertyOp11
 70
     0
102
RTVSPropertyOp12
 70
     0
102
RTVSPropertyOp13
 70
     0
102
RTVSPropertyOp14
 70
     2
102
RTVSPropertyOp15
 70
     0
102
RTVSPropertyOp16
 70
     0
102
RTVSPropertyOp17
 70
     0
102
RTVSPropertyOp18
 70
     0
102
RTVSPropertyOp19
 70
     0
102
RTVSPropertyOp20
 70
     0
102
RTVSPropertyOp21
 70
     0
102
RTVSPropertyOp22
 70
     0
102
RTVSPropertyOp23
 70
     0
102
RTVSPropertyOp24
 70
     0
102
RTVSPropertyOp25
 70
     0
102
RTVSPropertyOp26
 70
     0
102
RTVSPropertyOp27
 70
     0
102
RTVSPropertyOp28
 70
     0
102
RTVSPropertyOp29
 70
     0
102
RTVSPropertyOp30
 70
     0
102
RTVSPropertyOp31
 70
     0
102
RTVSPropertyOp32
 70
     0
102
RTVSPropertyOp33
 70
     0
102
RTVSPropertyOp34
 70
     0
102
RTVSPropertyOp35
 70
     0
102
RTVSPropertyOp36
 70
     0
102
RTVSPropertyOp37
 70
     0
102
RTVSPropertyOp38
 70
     0
102
RTVSPropertyOp39
 70
     0
102
RTVSPropertyOp40
 70
     0
102
RTVSPropertyOp41
 70
     0
102
RTVSPropertyOp42
 70
     0
102
RTVSPropertyOp43
 70
     0
102
RTVSPropertyOp44
 70
     0
102
RTVSPropertyOp45
 70
     0
102
RTVSPropertyOp46
 70
     0
102
RTVSPropertyOp47
 70
     0
102
RTVSPropertyOp48
 70
     0
102
RTVSPropertyOp49
 70
     0
102
RTVSPropertyOp50
 70
     0
102
RTVSPropertyOp51
 70
     0
102
RTVSPropertyOp52
 70
     0
102
RTVSPropertyOp53
 70
     0
102
RTVSPropertyOp54
 70
     0
102
RTVSPropertyOp55
 70
     0
102
RTVSPropertyOp56
 70
     0
102
RTVSPropertyOp57
 70
     0
102
RTVSPost2010Prop28
280
     0
102
RTVSPost2010PropOp28
 70
     0
102
RTVSPost2010Prop29
280
     1
102
RTVSPost2010PropOp29
 70
     0
102
RTVSPost2010Prop30
280
     1
102
RTVSPost2010PropOp30
 70
     0
102
RTVSPost2010Prop31
280
     0
102
RTVSPost2010PropOp31
 70
     0
102
RTVSPost2010Prop32
280
     0
102
RTVSPost2010PropOp32
 70
     0
102
RTVSPost2010Prop33
280
     0
102
RTVSPost2010PropOp33
 70
     0
102
RTVSPost2010Prop34
280
     0
102
RTVSPost2010PropOp34
 70
     0
102
RTVSPost2010Prop35
280
     0
102
RTVSPost2010PropOp35
 70
     0
102
RTVSPost2010Prop36
280
     0
102
RTVSPost2010PropOp36
 70
     0
102
RTVSPost2010Prop37
 90
       50
102
RTVSPost2010PropOp37
 70
     0
102
RTVSPost2010Prop38
140
0.0
102
RTVSPost2010PropOp38
 70
     0
102
RTVSPost2010Prop39
140
1.0
102
RTVSPost2010PropOp39
 70
     0
102
RTVSPost2010Prop40
 90
        0
102
RTVSPost2010PropOp40
 70
     0
102
RTVSPost2010Prop41ColorIndex
 90
       18
102
RTVSPost2010Prop41ColorRGB
 90
        0
102
RTVSPost2010PropOp41
 70
     0
102
RTVSPost2010Prop42
 90
       50
102
RTVSPost2010PropOp42
 70
     0
102
RTVSPost2010Prop43
 90
        3
102
RTVSPost2010PropOp43
 70
     0
102
RTVSPost2010Prop44ColorIndex
 90
        5
102
RTVSPost2010Prop44ColorRGB
 90
      255
102
RTVSPost2010PropOp44
 70
     0
102
RTVSPost2010Prop45
280
     0
102
RTVSPost2010PropOp45
 70
     0
102
RTVSPost2010Prop46
 90
       50
102
RTVSPost2010PropOp46
 70
     0
102
RTVSPost2010Prop47
 90
       50
102
RTVSPost2010PropOp47
 70
     0
102
RTVSPost2010Prop48
 90
       50
102
RTVSPost2010PropOp48
 70
     0
102
RTVSPost2010Prop49
280
     0
102
RTVSPost2010PropOp49
 70
     0
102
RTVSPost2010Prop50
 90
       50
102
RTVSPost2010PropOp50
 70
     0
102
RTVSPost2010Prop51ColorIndex
 90
      256
102
RTVSPost2010Prop51ColorRGB
 90
-16777216
102
RTVSPost2010PropOp51
 70
     0
102
RTVSPost2010Prop52
140
1.0
102
RTVSPost2010PropOp52
 70
     0
102
RTVSPost2010Prop53
 90
        2
102
RTVSPost2010PropOp53
 70
     0
102
RTVSPost2010Prop54
  1
strokes_ogs.tif
102
RTVSPost2010PropOp54
 70
     0
102
RTVSPost2010Prop55
280
     0
102
RTVSPost2010PropOp55
 70
     0
102
RTVSPost2010Prop56
140
1.0
102
RTVSPost2010PropOp56
 70
     0
102
RTVSPost2010Prop57
140
1.0
102
RTVSPost2010PropOp57
 70
     0
  0
XRECORD
  5
30B
102
{ACAD_REACTORS
330
30A
102
}
330
30A
100
AcDbXrecord
280
     1
102
RTVSPropertyOp0
 70
     1
102
RTVSPropertyOp1
 70
     1
102
RTVSPropertyOp2
 70
     1
102
RTVSPropertyOp3
 70
     1
102
RTVSPropertyOp4
 70
     1
102
RTVSPropertyOp5
 70
     1
102
RTVSPropertyOp6
 70
     1
102
RTVSPropertyOp7
 70
     1
102
RTVSPropertyOp8
 70
     1
102
RTVSPropertyOp9
 70
     1
102
RTVSPropertyOp10
 70
     1
102
RTVSPropertyOp11
 70
     1
102
RTVSPropertyOp12
 70
     1
102
RTVSPropertyOp13
 70
     1
102
RTVSPropertyOp14
 70
     1
102
RTVSPropertyOp15
 70
     1
102
RTVSPropertyOp16
 70
     1
102
RTVSPropertyOp17
 70
     1
102
RTVSPropertyOp18
 70
     1
102
RTVSPropertyOp19
 70
     1
102
RTVSPropertyOp20
 70
     1
102
RTVSPropertyOp21
 70
     1
102
RTVSPropertyOp22
 70
     1
102
RTVSPropertyOp23
 70
     1
102
RTVSPropertyOp24
 70
     1
102
RTVSPropertyOp25
 70
     1
102
RTVSPropertyOp26
 70
     1
102
RTVSPropertyOp27
 70
     1
102
RTVSPropertyOp28
 70
     1
102
RTVSPropertyOp29
 70
     1
102
RTVSPropertyOp30
 70
     1
102
RTVSPropertyOp31
 70
     1
102
RTVSPropertyOp32
 70
     1
102
RTVSPropertyOp33
 70
     1
102
RTVSPropertyOp34
 70
     1
102
RTVSPropertyOp35
 70
     1
102
RTVSPropertyOp36
 70
     1
102
RTVSPropertyOp37
 70
     1
102
RTVSPropertyOp38
 70
     1
102
RTVSPropertyOp39
 70
     1
102
RTVSPropertyOp40
 70
     1
102
RTVSPropertyOp41
 70
     1
102
RTVSPropertyOp42
 70
     1
102
RTVSPropertyOp43
 70
     1
102
RTVSPropertyOp44
 70
     1
102
RTVSPropertyOp45
 70
     1
102
RTVSPropertyOp46
 70
     1
102
RTVSPropertyOp47
 70
     1
102
RTVSPropertyOp48
 70
     1
102
RTVSPropertyOp49
 70
     1
102
RTVSPropertyOp50
 70
     1
102
RTVSPropertyOp51
 70
     0
102
RTVSPropertyOp52
 70
     0
102
RTVSPropertyOp53
 70
     1
102
RTVSPropertyOp54
 70
     1
102
RTVSPropertyOp55
 70
     1
102
RTVSPropertyOp56
 70
     1
102
RTVSPropertyOp57
 70
     1
102
RTVSPost2010Prop28
280
     0
102
RTVSPost2010PropOp28
 70
     1
102
RTVSPost2010Prop29
280
     1
102
RTVSPost2010PropOp29
 70
     1
102
RTVSPost2010Prop30
280
     1
102
RTVSPost2010PropOp30
 70
     1
102
RTVSPost2010Prop31
280
     0
102
RTVSPost2010PropOp31
 70
     1
102
RTVSPost2010Prop32
280
     0
102
RTVSPost2010PropOp32
 70
     1
102
RTVSPost2010Prop33
280
     0
102
RTVSPost2010PropOp33
 70
     1
102
RTVSPost2010Prop34
280
     0
102
RTVSPost2010PropOp34
 70
     1
102
RTVSPost2010Prop35
280
     0
102
RTVSPost2010PropOp35
 70
     1
102
RTVSPost2010Prop36
280
     0
102
RTVSPost2010PropOp36
 70
     1
102
RTVSPost2010Prop37
 90
       50
102
RTVSPost2010PropOp37
 70
     1
102
RTVSPost2010Prop38
140
0.0
102
RTVSPost2010PropOp38
 70
     1
102
RTVSPost2010Prop39
140
1.0
102
RTVSPost2010PropOp39
 70
     1
102
RTVSPost2010Prop40
 90
        0
102
RTVSPost2010PropOp40
 70
     1
102
RTVSPost2010Prop41ColorIndex
 90
       18
102
RTVSPost2010Prop41ColorRGB
 90
        0
102
RTVSPost2010PropOp41
 70
     1
102
RTVSPost2010Prop42
 90
       50
102
RTVSPost2010PropOp42
 70
     1
102
RTVSPost2010Prop43
 90
        3
102
RTVSPost2010PropOp43
 70
     1
102
RTVSPost2010Prop44ColorIndex
 90
        5
102
RTVSPost2010Prop44ColorRGB
 90
      255
102
RTVSPost2010PropOp44
 70
     1
102
RTVSPost2010Prop45
280
     0
102
RTVSPost2010PropOp45
 70
     1
102
RTVSPost2010Prop46
 90
       50
102
RTVSPost2010PropOp46
 70
     1
102
RTVSPost2010Prop47
 90
       50
102
RTVSPost2010PropOp47
 70
     1
102
RTVSPost2010Prop48
 90
       50
102
RTVSPost2010PropOp48
 70
     1
102
RTVSPost2010Prop49
280
     0
102
RTVSPost2010PropOp49
 70
     1
102
RTVSPost2010Prop50
 90
       50
102
RTVSPost2010PropOp50
 70
     1
102
RTVSPost2010Prop51ColorIndex
 90
      256
102
RTVSPost2010Prop51ColorRGB
 90
-16777216
102
RTVSPost2010PropOp51
 70
     0
102
RTVSPost2010Prop52
140
1.0
102
RTVSPost2010PropOp52
 70
     0
102
RTVSPost2010Prop53
 90
        2
102
RTVSPost2010PropOp53
 70
     1
102
RTVSPost2010Prop54
  1
strokes_ogs.tif
102
RTVSPost2010PropOp54
 70
     1
102
RTVSPost2010Prop55
280
     0
102
RTVSPost2010PropOp55
 70
     1
102
RTVSPost2010Prop56
140
1.0
102
RTVSPost2010PropOp56
 70
     1
102
RTVSPost2010Prop57
140
1.0
102
RTVSPost2010PropOp57
 70
     1
  0
XRECORD
  5
313
102
{ACAD_REACTORS
330
312
102
}
330
312
100
AcDbXrecord
280
     1
102
RTVSPropertyOp0
 70
     0
102
RTVSPropertyOp1
 70
     0
102
RTVSPropertyOp2
 70
     0
102
RTVSPropertyOp3
 70
     0
102
RTVSPropertyOp4
 70
     0
102
RTVSPropertyOp5
 70
     0
102
RTVSPropertyOp6
 70
     0
102
RTVSPropertyOp7
 70
     0
102
RTVSPropertyOp8
 70
     0
102
RTVSPropertyOp9
 70
     0
102
RTVSPropertyOp10
 70
     0
102
RTVSPropertyOp11
 70
     0
102
RTVSPropertyOp12
 70
     0
102
RTVSPropertyOp13
 70
     0
102
RTVSPropertyOp14
 70
     2
102
RTVSPropertyOp15
 70
     0
102
RTVSPropertyOp16
 70
     0
102
RTVSPropertyOp17
 70
     0
102
RTVSPropertyOp18
 70
     0
102
RTVSPropertyOp19
 70
     0
102
RTVSPropertyOp20
 70
     0
102
RTVSPropertyOp21
 70
     0
102
RTVSPropertyOp22
 70
     0
102
RTVSPropertyOp23
 70
     0
102
RTVSPropertyOp24
 70
     0
102
RTVSPropertyOp25
 70
     0
102
RTVSPropertyOp26
 70
     0
102
RTVSPropertyOp27
 70
     0
102
RTVSPropertyOp28
 70
     0
102
RTVSPropertyOp29
 70
     0
102
RTVSPropertyOp30
 70
     0
102
RTVSPropertyOp31
 70
     0
102
RTVSPropertyOp32
 70
     0
102
RTVSPropertyOp33
 70
     0
102
RTVSPropertyOp34
 70
     0
102
RTVSPropertyOp35
 70
     0
102
RTVSPropertyOp36
 70
     0
102
RTVSPropertyOp37
 70
     0
102
RTVSPropertyOp38
 70
     0
102
RTVSPropertyOp39
 70
     0
102
RTVSPropertyOp40
 70
     0
102
RTVSPropertyOp41
 70
     0
102
RTVSPropertyOp42
 70
     0
102
RTVSPropertyOp43
 70
     0
102
RTVSPropertyOp44
 70
     0
102
RTVSPropertyOp45
 70
     0
102
RTVSPropertyOp46
 70
     0
102
RTVSPropertyOp47
 70
     0
102
RTVSPropertyOp48
 70
     0
102
RTVSPropertyOp49
 70
     0
102
RTVSPropertyOp50
 70
     0
102
RTVSPropertyOp51
 70
     0
102
RTVSPropertyOp52
 70
     0
102
RTVSPropertyOp53
 70
     0
102
RTVSPropertyOp54
 70
     0
102
RTVSPropertyOp55
 70
     0
102
RTVSPropertyOp56
 70
     0
102
RTVSPropertyOp57
 70
     0
102
RTVSPost2010Prop28
280
     0
102
RTVSPost2010PropOp28
 70
     0
102
RTVSPost2010Prop29
280
     1
102
RTVSPost2010PropOp29
 70
     0
102
RTVSPost2010Prop30
280
     1
102
RTVSPost2010PropOp30
 70
     0
102
RTVSPost2010Prop31
280
     0
102
RTVSPost2010PropOp31
 70
     0
102
RTVSPost2010Prop32
280
     0
102
RTVSPost2010PropOp32
 70
     0
102
RTVSPost2010Prop33
280
     0
102
RTVSPost2010PropOp33
 70
     0
102
RTVSPost2010Prop34
280
     0
102
RTVSPost2010PropOp34
 70
     0
102
RTVSPost2010Prop35
280
     0
102
RTVSPost2010PropOp35
 70
     0
102
RTVSPost2010Prop36
280
     0
102
RTVSPost2010PropOp36
 70
     0
102
RTVSPost2010Prop37
 90
       50
102
RTVSPost2010PropOp37
 70
     0
102
RTVSPost2010Prop38
140
0.0
102
RTVSPost2010PropOp38
 70
     0
102
RTVSPost2010Prop39
140
1.0
102
RTVSPost2010PropOp39
 70
     0
102
RTVSPost2010Prop40
 90
        0
102
RTVSPost2010PropOp40
 70
     0
102
RTVSPost2010Prop41ColorIndex
 90
       18
102
RTVSPost2010Prop41ColorRGB
 90
        0
102
RTVSPost2010PropOp41
 70
     0
102
RTVSPost2010Prop42
 90
       50
102
RTVSPost2010PropOp42
 70
     0
102
RTVSPost2010Prop43
 90
        3
102
RTVSPost2010PropOp43
 70
     0
102
RTVSPost2010Prop44ColorIndex
 90
        5
102
RTVSPost2010Prop44ColorRGB
 90
      255
102
RTVSPost2010PropOp44
 70
     0
102
RTVSPost2010Prop45
280
     0
102
RTVSPost2010PropOp45
 70
     0
102
RTVSPost2010Prop46
 90
       50
102
RTVSPost2010PropOp46
 70
     0
102
RTVSPost2010Prop47
 90
       50
102
RTVSPost2010PropOp47
 70
     0
102
RTVSPost2010Prop48
 90
       50
102
RTVSPost2010PropOp48
 70
     0
102
RTVSPost2010Prop49
280
     0
102
RTVSPost2010PropOp49
 70
     0
102
RTVSPost2010Prop50
 90
       50
102
RTVSPost2010PropOp50
 70
     0
102
RTVSPost2010Prop51ColorIndex
 90
      256
102
RTVSPost2010Prop51ColorRGB
 90
-16777216
102
RTVSPost2010PropOp51
 70
     0
102
RTVSPost2010Prop52
140
1.0
102
RTVSPost2010PropOp52
 70
     0
102
RTVSPost2010Prop53
 90
        2
102
RTVSPost2010PropOp53
 70
     0
102
RTVSPost2010Prop54
  1
strokes_ogs.tif
102
RTVSPost2010PropOp54
 70
     0
102
RTVSPost2010Prop55
280
     0
102
RTVSPost2010PropOp55
 70
     0
102
RTVSPost2010Prop56
140
1.0
102
RTVSPost2010PropOp56
 70
     0
102
RTVSPost2010Prop57
140
1.0
102
RTVSPost2010PropOp57
 70
     0
  0
XRECORD
  5
301
102
{ACAD_REACTORS
330
300
102
}
330
300
100
AcDbXrecord
280
     1
102
RTVSPropertyOp0
 70
     1
102
RTVSPropertyOp1
 70
     1
102
RTVSPropertyOp2
 70
     1
102
RTVSPropertyOp3
 70
     1
102
RTVSPropertyOp4
 70
     1
102
RTVSPropertyOp5
 70
     1
102
RTVSPropertyOp6
 70
     1
102
RTVSPropertyOp7
 70
     1
102
RTVSPropertyOp8
 70
     1
102
RTVSPropertyOp9
 70
     1
102
RTVSPropertyOp10
 70
     1
102
RTVSPropertyOp11
 70
     1
102
RTVSPropertyOp12
 70
     1
102
RTVSPropertyOp13
 70
     1
102
RTVSPropertyOp14
 70
     1
102
RTVSPropertyOp15
 70
     1
102
RTVSPropertyOp16
 70
     1
102
RTVSPropertyOp17
 70
     1
102
RTVSPropertyOp18
 70
     1
102
RTVSPropertyOp19
 70
     1
102
RTVSPropertyOp20
 70
     1
102
RTVSPropertyOp21
 70
     1
102
RTVSPropertyOp22
 70
     1
102
RTVSPropertyOp23
 70
     1
102
RTVSPropertyOp24
 70
     1
102
RTVSPropertyOp25
 70
     1
102
RTVSPropertyOp26
 70
     1
102
RTVSPropertyOp27
 70
     1
102
RTVSPropertyOp28
 70
     1
102
RTVSPropertyOp29
 70
     1
102
RTVSPropertyOp30
 70
     1
102
RTVSPropertyOp31
 70
     1
102
RTVSPropertyOp32
 70
     1
102
RTVSPropertyOp33
 70
     1
102
RTVSPropertyOp34
 70
     1
102
RTVSPropertyOp35
 70
     1
102
RTVSPropertyOp36
 70
     1
102
RTVSPropertyOp37
 70
     1
102
RTVSPropertyOp38
 70
     1
102
RTVSPropertyOp39
 70
     1
102
RTVSPropertyOp40
 70
     1
102
RTVSPropertyOp41
 70
     1
102
RTVSPropertyOp42
 70
     1
102
RTVSPropertyOp43
 70
     1
102
RTVSPropertyOp44
 70
     1
102
RTVSPropertyOp45
 70
     1
102
RTVSPropertyOp46
 70
     1
102
RTVSPropertyOp47
 70
     1
102
RTVSPropertyOp48
 70
     1
102
RTVSPropertyOp49
 70
     1
102
RTVSPropertyOp50
 70
     1
102
RTVSPropertyOp51
 70
     0
102
RTVSPropertyOp52
 70
     0
102
RTVSPropertyOp53
 70
     1
102
RTVSPropertyOp54
 70
     1
102
RTVSPropertyOp55
 70
     1
102
RTVSPropertyOp56
 70
     1
102
RTVSPropertyOp57
 70
     1
102
RTVSPost2010Prop28
280
     0
102
RTVSPost2010PropOp28
 70
     1
102
RTVSPost2010Prop29
280
     1
102
RTVSPost2010PropOp29
 70
     1
102
RTVSPost2010Prop30
280
     1
102
RTVSPost2010PropOp30
 70
     1
102
RTVSPost2010Prop31
280
     0
102
RTVSPost2010PropOp31
 70
     1
102
RTVSPost2010Prop32
280
     0
102
RTVSPost2010PropOp32
 70
     1
102
RTVSPost2010Prop33
280
     0
102
RTVSPost2010PropOp33
 70
     1
102
RTVSPost2010Prop34
280
     0
102
RTVSPost2010PropOp34
 70
     1
102
RTVSPost2010Prop35
280
     0
102
RTVSPost2010PropOp35
 70
     1
102
RTVSPost2010Prop36
280
     0
102
RTVSPost2010PropOp36
 70
     1
102
RTVSPost2010Prop37
 90
       50
102
RTVSPost2010PropOp37
 70
     1
102
RTVSPost2010Prop38
140
0.0
102
RTVSPost2010PropOp38
 70
     1
102
RTVSPost2010Prop39
140
1.0
102
RTVSPost2010PropOp39
 70
     1
102
RTVSPost2010Prop40
 90
        0
102
RTVSPost2010PropOp40
 70
     1
102
RTVSPost2010Prop41ColorIndex
 90
       18
102
RTVSPost2010Prop41ColorRGB
 90
        0
102
RTVSPost2010PropOp41
 70
     1
102
RTVSPost2010Prop42
 90
       50
102
RTVSPost2010PropOp42
 70
     1
102
RTVSPost2010Prop43
 90
        3
102
RTVSPost2010PropOp43
 70
     1
102
RTVSPost2010Prop44ColorIndex
 90
        5
102
RTVSPost2010Prop44ColorRGB
 90
      255
102
RTVSPost2010PropOp44
 70
     1
102
RTVSPost2010Prop45
280
     0
102
RTVSPost2010PropOp45
 70
     1
102
RTVSPost2010Prop46
 90
       50
102
RTVSPost2010PropOp46
 70
     1
102
RTVSPost2010Prop47
 90
       50
102
RTVSPost2010PropOp47
 70
     1
102
RTVSPost2010Prop48
 90
       50
102
RTVSPost2010PropOp48
 70
     1
102
RTVSPost2010Prop49
280
     0
102
RTVSPost2010PropOp49
 70
     1
102
RTVSPost2010Prop50
 90
       50
102
RTVSPost2010PropOp50
 70
     1
102
RTVSPost2010Prop51ColorIndex
 90
      256
102
RTVSPost2010Prop51ColorRGB
 90
-16777216
102
RTVSPost2010PropOp51
 70
     0
102
RTVSPost2010Prop52
140
1.0
102
RTVSPost2010PropOp52
 70
     0
102
RTVSPost2010Prop53
 90
        2
102
RTVSPost2010PropOp53
 70
     1
102
RTVSPost2010Prop54
  1
strokes_ogs.tif
102
RTVSPost2010PropOp54
 70
     1
102
RTVSPost2010Prop55
280
     0
102
RTVSPost2010PropOp55
 70
     1
102
RTVSPost2010Prop56
140
1.0
102
RTVSPost2010PropOp56
 70
     1
102
RTVSPost2010Prop57
140
1.0
102
RTVSPost2010PropOp57
 70
     1
  0
XRECORD
  5
31F
102
{ACAD_REACTORS
330
31E
102
}
330
31E
100
AcDbXrecord
280
     1
102
RTVSPropertyOp0
 70
     1
102
RTVSPropertyOp1
 70
     1
102
RTVSPropertyOp2
 70
     1
102
RTVSPropertyOp3
 70
     1
102
RTVSPropertyOp4
 70
     1
102
RTVSPropertyOp5
 70
     1
102
RTVSPropertyOp6
 70
     1
102
RTVSPropertyOp7
 70
     1
102
RTVSPropertyOp8
 70
     1
102
RTVSPropertyOp9
 70
     1
102
RTVSPropertyOp10
 70
     1
102
RTVSPropertyOp11
 70
     1
102
RTVSPropertyOp12
 70
     1
102
RTVSPropertyOp13
 70
     1
102
RTVSPropertyOp14
 70
     1
102
RTVSPropertyOp15
 70
     1
102
RTVSPropertyOp16
 70
     1
102
RTVSPropertyOp17
 70
     1
102
RTVSPropertyOp18
 70
     1
102
RTVSPropertyOp19
 70
     1
102
RTVSPropertyOp20
 70
     1
102
RTVSPropertyOp21
 70
     1
102
RTVSPropertyOp22
 70
     1
102
RTVSPropertyOp23
 70
     1
102
RTVSPropertyOp24
 70
     1
102
RTVSPropertyOp25
 70
     1
102
RTVSPropertyOp26
 70
     1
102
RTVSPropertyOp27
 70
     1
102
RTVSPropertyOp28
 70
     1
102
RTVSPropertyOp29
 70
     1
102
RTVSPropertyOp30
 70
     1
102
RTVSPropertyOp31
 70
     1
102
RTVSPropertyOp32
 70
     1
102
RTVSPropertyOp33
 70
     1
102
RTVSPropertyOp34
 70
     1
102
RTVSPropertyOp35
 70
     1
102
RTVSPropertyOp36
 70
     1
102
RTVSPropertyOp37
 70
     1
102
RTVSPropertyOp38
 70
     1
102
RTVSPropertyOp39
 70
     1
102
RTVSPropertyOp40
 70
     1
102
RTVSPropertyOp41
 70
     1
102
RTVSPropertyOp42
 70
     1
102
RTVSPropertyOp43
 70
     1
102
RTVSPropertyOp44
 70
     1
102
RTVSPropertyOp45
 70
     1
102
RTVSPropertyOp46
 70
     1
102
RTVSPropertyOp47
 70
     1
102
RTVSPropertyOp48
 70
     1
102
RTVSPropertyOp49
 70
     1
102
RTVSPropertyOp50
 70
     1
102
RTVSPropertyOp51
 70
     0
102
RTVSPropertyOp52
 70
     0
102
RTVSPropertyOp53
 70
     1
102
RTVSPropertyOp54
 70
     1
102
RTVSPropertyOp55
 70
     1
102
RTVSPropertyOp56
 70
     1
102
RTVSPropertyOp57
 70
     1
102
RTVSPost2010Prop28
280
     0
102
RTVSPost2010PropOp28
 70
     1
102
RTVSPost2010Prop29
280
     1
102
RTVSPost2010PropOp29
 70
     1
102
RTVSPost2010Prop30
280
     1
102
RTVSPost2010PropOp30
 70
     1
102
RTVSPost2010Prop31
280
     0
102
RTVSPost2010PropOp31
 70
     1
102
RTVSPost2010Prop32
280
     0
102
RTVSPost2010PropOp32
 70
     1
102
RTVSPost2010Prop33
280
     0
102
RTVSPost2010PropOp33
 70
     1
102
RTVSPost2010Prop34
280
     0
102
RTVSPost2010PropOp34
 70
     1
102
RTVSPost2010Prop35
280
     0
102
RTVSPost2010PropOp35
 70
     1
102
RTVSPost2010Prop36
280
     0
102
RTVSPost2010PropOp36
 70
     1
102
RTVSPost2010Prop37
 90
       50
102
RTVSPost2010PropOp37
 70
     1
102
RTVSPost2010Prop38
140
0.0
102
RTVSPost2010PropOp38
 70
     1
102
RTVSPost2010Prop39
140
1.0
102
RTVSPost2010PropOp39
 70
     1
102
RTVSPost2010Prop40
 90
        0
102
RTVSPost2010PropOp40
 70
     1
102
RTVSPost2010Prop41ColorIndex
 90
       18
102
RTVSPost2010Prop41ColorRGB
 90
        0
102
RTVSPost2010PropOp41
 70
     1
102
RTVSPost2010Prop42
 90
       50
102
RTVSPost2010PropOp42
 70
     1
102
RTVSPost2010Prop43
 90
        3
102
RTVSPost2010PropOp43
 70
     1
102
RTVSPost2010Prop44ColorIndex
 90
        5
102
RTVSPost2010Prop44ColorRGB
 90
      255
102
RTVSPost2010PropOp44
 70
     1
102
RTVSPost2010Prop45
280
     0
102
RTVSPost2010PropOp45
 70
     1
102
RTVSPost2010Prop46
 90
       50
102
RTVSPost2010PropOp46
 70
     1
102
RTVSPost2010Prop47
 90
       50
102
RTVSPost2010PropOp47
 70
     1
102
RTVSPost2010Prop48
 90
       50
102
RTVSPost2010PropOp48
 70
     1
102
RTVSPost2010Prop49
280
     0
102
RTVSPost2010PropOp49
 70
     1
102
RTVSPost2010Prop50
 90
       50
102
RTVSPost2010PropOp50
 70
     1
102
RTVSPost2010Prop51ColorIndex
 90
      256
102
RTVSPost2010Prop51ColorRGB
 90
-16777216
102
RTVSPost2010PropOp51
 70
     0
102
RTVSPost2010Prop52
140
1.0
102
RTVSPost2010PropOp52
 70
     0
102
RTVSPost2010Prop53
 90
        2
102
RTVSPost2010PropOp53
 70
     1
102
RTVSPost2010Prop54
  1
strokes_ogs.tif
102
RTVSPost2010PropOp54
 70
     1
102
RTVSPost2010Prop55
280
     0
102
RTVSPost2010PropOp55
 70
     1
102
RTVSPost2010Prop56
140
1.0
102
RTVSPost2010PropOp56
 70
     1
102
RTVSPost2010Prop57
140
1.0
102
RTVSPost2010PropOp57
 70
     1
  0
XRECORD
  5
31D
102
{ACAD_REACTORS
330
31C
102
}
330
31C
100
AcDbXrecord
280
     1
102
RTVSPropertyOp0
 70
     1
102
RTVSPropertyOp1
 70
     1
102
RTVSPropertyOp2
 70
     1
102
RTVSPropertyOp3
 70
     1
102
RTVSPropertyOp4
 70
     1
102
RTVSPropertyOp5
 70
     1
102
RTVSPropertyOp6
 70
     1
102
RTVSPropertyOp7
 70
     1
102
RTVSPropertyOp8
 70
     1
102
RTVSPropertyOp9
 70
     1
102
RTVSPropertyOp10
 70
     1
102
RTVSPropertyOp11
 70
     1
102
RTVSPropertyOp12
 70
     1
102
RTVSPropertyOp13
 70
     1
102
RTVSPropertyOp14
 70
     1
102
RTVSPropertyOp15
 70
     1
102
RTVSPropertyOp16
 70
     1
102
RTVSPropertyOp17
 70
     1
102
RTVSPropertyOp18
 70
     1
102
RTVSPropertyOp19
 70
     1
102
RTVSPropertyOp20
 70
     1
102
RTVSPropertyOp21
 70
     1
102
RTVSPropertyOp22
 70
     1
102
RTVSPropertyOp23
 70
     1
102
RTVSPropertyOp24
 70
     1
102
RTVSPropertyOp25
 70
     1
102
RTVSPropertyOp26
 70
     1
102
RTVSPropertyOp27
 70
     1
102
RTVSPropertyOp28
 70
     1
102
RTVSPropertyOp29
 70
     1
102
RTVSPropertyOp30
 70
     1
102
RTVSPropertyOp31
 70
     1
102
RTVSPropertyOp32
 70
     1
102
RTVSPropertyOp33
 70
     1
102
RTVSPropertyOp34
 70
     1
102
RTVSPropertyOp35
 70
     1
102
RTVSPropertyOp36
 70
     1
102
RTVSPropertyOp37
 70
     1
102
RTVSPropertyOp38
 70
     1
102
RTVSPropertyOp39
 70
     1
102
RTVSPropertyOp40
 70
     1
102
RTVSPropertyOp41
 70
     1
102
RTVSPropertyOp42
 70
     1
102
RTVSPropertyOp43
 70
     1
102
RTVSPropertyOp44
 70
     1
102
RTVSPropertyOp45
 70
     1
102
RTVSPropertyOp46
 70
     1
102
RTVSPropertyOp47
 70
     1
102
RTVSPropertyOp48
 70
     1
102
RTVSPropertyOp49
 70
     1
102
RTVSPropertyOp50
 70
     1
102
RTVSPropertyOp51
 70
     0
102
RTVSPropertyOp52
 70
     0
102
RTVSPropertyOp53
 70
     1
102
RTVSPropertyOp54
 70
     1
102
RTVSPropertyOp55
 70
     1
102
RTVSPropertyOp56
 70
     1
102
RTVSPropertyOp57
 70
     1
102
RTVSPost2010Prop28
280
     0
102
RTVSPost2010PropOp28
 70
     1
102
RTVSPost2010Prop29
280
     1
102
RTVSPost2010PropOp29
 70
     1
102
RTVSPost2010Prop30
280
     1
102
RTVSPost2010PropOp30
 70
     1
102
RTVSPost2010Prop31
280
     0
102
RTVSPost2010PropOp31
 70
     1
102
RTVSPost2010Prop32
280
     0
102
RTVSPost2010PropOp32
 70
     1
102
RTVSPost2010Prop33
280
     0
102
RTVSPost2010PropOp33
 70
     1
102
RTVSPost2010Prop34
280
     0
102
RTVSPost2010PropOp34
 70
     1
102
RTVSPost2010Prop35
280
     0
102
RTVSPost2010PropOp35
 70
     1
102
RTVSPost2010Prop36
280
     0
102
RTVSPost2010PropOp36
 70
     1
102
RTVSPost2010Prop37
 90
       50
102
RTVSPost2010PropOp37
 70
     1
102
RTVSPost2010Prop38
140
0.0
102
RTVSPost2010PropOp38
 70
     1
102
RTVSPost2010Prop39
140
1.0
102
RTVSPost2010PropOp39
 70
     1
102
RTVSPost2010Prop40
 90
        0
102
RTVSPost2010PropOp40
 70
     1
102
RTVSPost2010Prop41ColorIndex
 90
       18
102
RTVSPost2010Prop41ColorRGB
 90
        0
102
RTVSPost2010PropOp41
 70
     1
102
RTVSPost2010Prop42
 90
       50
102
RTVSPost2010PropOp42
 70
     1
102
RTVSPost2010Prop43
 90
        3
102
RTVSPost2010PropOp43
 70
     1
102
RTVSPost2010Prop44ColorIndex
 90
        5
102
RTVSPost2010Prop44ColorRGB
 90
      255
102
RTVSPost2010PropOp44
 70
     1
102
RTVSPost2010Prop45
280
     0
102
RTVSPost2010PropOp45
 70
     1
102
RTVSPost2010Prop46
 90
       50
102
RTVSPost2010PropOp46
 70
     1
102
RTVSPost2010Prop47
 90
       50
102
RTVSPost2010PropOp47
 70
     1
102
RTVSPost2010Prop48
 90
       50
102
RTVSPost2010PropOp48
 70
     1
102
RTVSPost2010Prop49
280
     0
102
RTVSPost2010PropOp49
 70
     1
102
RTVSPost2010Prop50
 90
       50
102
RTVSPost2010PropOp50
 70
     1
102
RTVSPost2010Prop51ColorIndex
 90
      256
102
RTVSPost2010Prop51ColorRGB
 90
-16777216
102
RTVSPost2010PropOp51
 70
     0
102
RTVSPost2010Prop52
140
1.0
102
RTVSPost2010PropOp52
 70
     0
102
RTVSPost2010Prop53
 90
        2
102
RTVSPost2010PropOp53
 70
     1
102
RTVSPost2010Prop54
  1
strokes_ogs.tif
102
RTVSPost2010PropOp54
 70
     1
102
RTVSPost2010Prop55
280
     0
102
RTVSPost2010PropOp55
 70
     1
102
RTVSPost2010Prop56
140
1.0
102
RTVSPost2010PropOp56
 70
     1
102
RTVSPost2010Prop57
140
1.0
102
RTVSPost2010PropOp57
 70
     1
  0
XRECORD
  5
317
102
{ACAD_REACTORS
330
316
102
}
330
316
100
AcDbXrecord
280
     1
102
RTVSPropertyOp0
 70
     1
102
RTVSPropertyOp1
 70
     1
102
RTVSPropertyOp2
 70
     1
102
RTVSPropertyOp3
 70
     1
102
RTVSPropertyOp4
 70
     1
102
RTVSPropertyOp5
 70
     1
102
RTVSPropertyOp6
 70
     1
102
RTVSPropertyOp7
 70
     1
102
RTVSPropertyOp8
 70
     1
102
RTVSPropertyOp9
 70
     1
102
RTVSPropertyOp10
 70
     1
102
RTVSPropertyOp11
 70
     1
102
RTVSPropertyOp12
 70
     1
102
RTVSPropertyOp13
 70
     1
102
RTVSPropertyOp14
 70
     1
102
RTVSPropertyOp15
 70
     1
102
RTVSPropertyOp16
 70
     1
102
RTVSPropertyOp17
 70
     1
102
RTVSPropertyOp18
 70
     1
102
RTVSPropertyOp19
 70
     1
102
RTVSPropertyOp20
 70
     1
102
RTVSPropertyOp21
 70
     1
102
RTVSPropertyOp22
 70
     1
102
RTVSPropertyOp23
 70
     1
102
RTVSPropertyOp24
 70
     1
102
RTVSPropertyOp25
 70
     1
102
RTVSPropertyOp26
 70
     1
102
RTVSPropertyOp27
 70
     1
102
RTVSPropertyOp28
 70
     1
102
RTVSPropertyOp29
 70
     1
102
RTVSPropertyOp30
 70
     1
102
RTVSPropertyOp31
 70
     1
102
RTVSPropertyOp32
 70
     1
102
RTVSPropertyOp33
 70
     1
102
RTVSPropertyOp34
 70
     1
102
RTVSPropertyOp35
 70
     1
102
RTVSPropertyOp36
 70
     1
102
RTVSPropertyOp37
 70
     1
102
RTVSPropertyOp38
 70
     1
102
RTVSPropertyOp39
 70
     1
102
RTVSPropertyOp40
 70
     1
102
RTVSPropertyOp41
 70
     1
102
RTVSPropertyOp42
 70
     1
102
RTVSPropertyOp43
 70
     1
102
RTVSPropertyOp44
 70
     1
102
RTVSPropertyOp45
 70
     1
102
RTVSPropertyOp46
 70
     1
102
RTVSPropertyOp47
 70
     1
102
RTVSPropertyOp48
 70
     1
102
RTVSPropertyOp49
 70
     1
102
RTVSPropertyOp50
 70
     1
102
RTVSPropertyOp51
 70
     0
102
RTVSPropertyOp52
 70
     0
102
RTVSPropertyOp53
 70
     1
102
RTVSPropertyOp54
 70
     1
102
RTVSPropertyOp55
 70
     1
102
RTVSPropertyOp56
 70
     1
102
RTVSPropertyOp57
 70
     1
102
RTVSPost2010Prop28
280
     0
102
RTVSPost2010PropOp28
 70
     1
102
RTVSPost2010Prop29
280
     1
102
RTVSPost2010PropOp29
 70
     1
102
RTVSPost2010Prop30
280
     1
102
RTVSPost2010PropOp30
 70
     1
102
RTVSPost2010Prop31
280
     0
102
RTVSPost2010PropOp31
 70
     1
102
RTVSPost2010Prop32
280
     0
102
RTVSPost2010PropOp32
 70
     1
102
RTVSPost2010Prop33
280
     0
102
RTVSPost2010PropOp33
 70
     1
102
RTVSPost2010Prop34
280
     0
102
RTVSPost2010PropOp34
 70
     1
102
RTVSPost2010Prop35
280
     0
102
RTVSPost2010PropOp35
 70
     1
102
RTVSPost2010Prop36
280
     0
102
RTVSPost2010PropOp36
 70
     1
102
RTVSPost2010Prop37
 90
       50
102
RTVSPost2010PropOp37
 70
     1
102
RTVSPost2010Prop38
140
0.0
102
RTVSPost2010PropOp38
 70
     1
102
RTVSPost2010Prop39
140
1.0
102
RTVSPost2010PropOp39
 70
     1
102
RTVSPost2010Prop40
 90
        0
102
RTVSPost2010PropOp40
 70
     1
102
RTVSPost2010Prop41ColorIndex
 90
       18
102
RTVSPost2010Prop41ColorRGB
 90
        0
102
RTVSPost2010PropOp41
 70
     1
102
RTVSPost2010Prop42
 90
       50
102
RTVSPost2010PropOp42
 70
     1
102
RTVSPost2010Prop43
 90
        3
102
RTVSPost2010PropOp43
 70
     1
102
RTVSPost2010Prop44ColorIndex
 90
        5
102
RTVSPost2010Prop44ColorRGB
 90
      255
102
RTVSPost2010PropOp44
 70
     1
102
RTVSPost2010Prop45
280
     0
102
RTVSPost2010PropOp45
 70
     1
102
RTVSPost2010Prop46
 90
       50
102
RTVSPost2010PropOp46
 70
     1
102
RTVSPost2010Prop47
 90
       50
102
RTVSPost2010PropOp47
 70
     1
102
RTVSPost2010Prop48
 90
       50
102
RTVSPost2010PropOp48
 70
     1
102
RTVSPost2010Prop49
280
     0
102
RTVSPost2010PropOp49
 70
     1
102
RTVSPost2010Prop50
 90
       50
102
RTVSPost2010PropOp50
 70
     1
102
RTVSPost2010Prop51ColorIndex
 90
      256
102
RTVSPost2010Prop51ColorRGB
 90
-16777216
102
RTVSPost2010PropOp51
 70
     0
102
RTVSPost2010Prop52
140
1.0
102
RTVSPost2010PropOp52
 70
     0
102
RTVSPost2010Prop53
 90
        2
102
RTVSPost2010PropOp53
 70
     1
102
RTVSPost2010Prop54
  1
strokes_ogs.tif
102
RTVSPost2010PropOp54
 70
     1
102
RTVSPost2010Prop55
280
     0
102
RTVSPost2010PropOp55
 70
     1
102
RTVSPost2010Prop56
140
1.0
102
RTVSPost2010PropOp56
 70
     1
102
RTVSPost2010Prop57
140
1.0
102
RTVSPost2010PropOp57
 70
     1
  0
XRECORD
  5
319
102
{ACAD_REACTORS
330
318
102
}
330
318
100
AcDbXrecord
280
     1
102
RTVSPropertyOp0
 70
     1
102
RTVSPropertyOp1
 70
     1
102
RTVSPropertyOp2
 70
     1
102
RTVSPropertyOp3
 70
     1
102
RTVSPropertyOp4
 70
     1
102
RTVSPropertyOp5
 70
     1
102
RTVSPropertyOp6
 70
     1
102
RTVSPropertyOp7
 70
     1
102
RTVSPropertyOp8
 70
     1
102
RTVSPropertyOp9
 70
     1
102
RTVSPropertyOp10
 70
     1
102
RTVSPropertyOp11
 70
     1
102
RTVSPropertyOp12
 70
     1
102
RTVSPropertyOp13
 70
     1
102
RTVSPropertyOp14
 70
     1
102
RTVSPropertyOp15
 70
     1
102
RTVSPropertyOp16
 70
     1
102
RTVSPropertyOp17
 70
     1
102
RTVSPropertyOp18
 70
     1
102
RTVSPropertyOp19
 70
     1
102
RTVSPropertyOp20
 70
     1
102
RTVSPropertyOp21
 70
     1
102
RTVSPropertyOp22
 70
     1
102
RTVSPropertyOp23
 70
     1
102
RTVSPropertyOp24
 70
     1
102
RTVSPropertyOp25
 70
     1
102
RTVSPropertyOp26
 70
     1
102
RTVSPropertyOp27
 70
     1
102
RTVSPropertyOp28
 70
     1
102
RTVSPropertyOp29
 70
     1
102
RTVSPropertyOp30
 70
     1
102
RTVSPropertyOp31
 70
     1
102
RTVSPropertyOp32
 70
     1
102
RTVSPropertyOp33
 70
     1
102
RTVSPropertyOp34
 70
     1
102
RTVSPropertyOp35
 70
     1
102
RTVSPropertyOp36
 70
     1
102
RTVSPropertyOp37
 70
     1
102
RTVSPropertyOp38
 70
     1
102
RTVSPropertyOp39
 70
     1
102
RTVSPropertyOp40
 70
     1
102
RTVSPropertyOp41
 70
     1
102
RTVSPropertyOp42
 70
     1
102
RTVSPropertyOp43
 70
     1
102
RTVSPropertyOp44
 70
     1
102
RTVSPropertyOp45
 70
     1
102
RTVSPropertyOp46
 70
     1
102
RTVSPropertyOp47
 70
     1
102
RTVSPropertyOp48
 70
     1
102
RTVSPropertyOp49
 70
     1
102
RTVSPropertyOp50
 70
     1
102
RTVSPropertyOp51
 70
     0
102
RTVSPropertyOp52
 70
     0
102
RTVSPropertyOp53
 70
     1
102
RTVSPropertyOp54
 70
     1
102
RTVSPropertyOp55
 70
     1
102
RTVSPropertyOp56
 70
     1
102
RTVSPropertyOp57
 70
     1
102
RTVSPost2010Prop28
280
     0
102
RTVSPost2010PropOp28
 70
     1
102
RTVSPost2010Prop29
280
     1
102
RTVSPost2010PropOp29
 70
     1
102
RTVSPost2010Prop30
280
     1
102
RTVSPost2010PropOp30
 70
     1
102
RTVSPost2010Prop31
280
     0
102
RTVSPost2010PropOp31
 70
     1
102
RTVSPost2010Prop32
280
     0
102
RTVSPost2010PropOp32
 70
     1
102
RTVSPost2010Prop33
280
     0
102
RTVSPost2010PropOp33
 70
     1
102
RTVSPost2010Prop34
280
     0
102
RTVSPost2010PropOp34
 70
     1
102
RTVSPost2010Prop35
280
     0
102
RTVSPost2010PropOp35
 70
     1
102
RTVSPost2010Prop36
280
     0
102
RTVSPost2010PropOp36
 70
     1
102
RTVSPost2010Prop37
 90
       50
102
RTVSPost2010PropOp37
 70
     1
102
RTVSPost2010Prop38
140
0.0
102
RTVSPost2010PropOp38
 70
     1
102
RTVSPost2010Prop39
140
1.0
102
RTVSPost2010PropOp39
 70
     1
102
RTVSPost2010Prop40
 90
        0
102
RTVSPost2010PropOp40
 70
     1
102
RTVSPost2010Prop41ColorIndex
 90
       18
102
RTVSPost2010Prop41ColorRGB
 90
        0
102
RTVSPost2010PropOp41
 70
     1
102
RTVSPost2010Prop42
 90
       50
102
RTVSPost2010PropOp42
 70
     1
102
RTVSPost2010Prop43
 90
        3
102
RTVSPost2010PropOp43
 70
     1
102
RTVSPost2010Prop44ColorIndex
 90
        5
102
RTVSPost2010Prop44ColorRGB
 90
      255
102
RTVSPost2010PropOp44
 70
     1
102
RTVSPost2010Prop45
280
     0
102
RTVSPost2010PropOp45
 70
     1
102
RTVSPost2010Prop46
 90
       50
102
RTVSPost2010PropOp46
 70
     1
102
RTVSPost2010Prop47
 90
       50
102
RTVSPost2010PropOp47
 70
     1
102
RTVSPost2010Prop48
 90
       50
102
RTVSPost2010PropOp48
 70
     1
102
RTVSPost2010Prop49
280
     0
102
RTVSPost2010PropOp49
 70
     1
102
RTVSPost2010Prop50
 90
       50
102
RTVSPost2010PropOp50
 70
     1
102
RTVSPost2010Prop51ColorIndex
 90
      256
102
RTVSPost2010Prop51ColorRGB
 90
-16777216
102
RTVSPost2010PropOp51
 70
     0
102
RTVSPost2010Prop52
140
1.0
102
RTVSPost2010PropOp52
 70
     0
102
RTVSPost2010Prop53
 90
        2
102
RTVSPost2010PropOp53
 70
     1
102
RTVSPost2010Prop54
  1
strokes_ogs.tif
102
RTVSPost2010PropOp54
 70
     1
102
RTVSPost2010Prop55
280
     0
102
RTVSPost2010PropOp55
 70
     1
102
RTVSPost2010Prop56
140
1.0
102
RTVSPost2010PropOp56
 70
     1
102
RTVSPost2010Prop57
140
1.0
102
RTVSPost2010PropOp57
 70
     1
  0
XRECORD
  5
309
102
{ACAD_REACTORS
330
308
102
}
330
308
100
AcDbXrecord
280
     1
102
RTVSPropertyOp0
 70
     1
102
RTVSPropertyOp1
 70
     1
102
RTVSPropertyOp2
 70
     1
102
RTVSPropertyOp3
 70
     1
102
RTVSPropertyOp4
 70
     1
102
RTVSPropertyOp5
 70
     1
102
RTVSPropertyOp6
 70
     1
102
RTVSPropertyOp7
 70
     1
102
RTVSPropertyOp8
 70
     1
102
RTVSPropertyOp9
 70
     1
102
RTVSPropertyOp10
 70
     1
102
RTVSPropertyOp11
 70
     1
102
RTVSPropertyOp12
 70
     1
102
RTVSPropertyOp13
 70
     1
102
RTVSPropertyOp14
 70
     1
102
RTVSPropertyOp15
 70
     1
102
RTVSPropertyOp16
 70
     1
102
RTVSPropertyOp17
 70
     1
102
RTVSPropertyOp18
 70
     1
102
RTVSPropertyOp19
 70
     1
102
RTVSPropertyOp20
 70
     1
102
RTVSPropertyOp21
 70
     1
102
RTVSPropertyOp22
 70
     1
102
RTVSPropertyOp23
 70
     1
102
RTVSPropertyOp24
 70
     1
102
RTVSPropertyOp25
 70
     1
102
RTVSPropertyOp26
 70
     1
102
RTVSPropertyOp27
 70
     1
102
RTVSPropertyOp28
 70
     1
102
RTVSPropertyOp29
 70
     1
102
RTVSPropertyOp30
 70
     1
102
RTVSPropertyOp31
 70
     1
102
RTVSPropertyOp32
 70
     1
102
RTVSPropertyOp33
 70
     1
102
RTVSPropertyOp34
 70
     1
102
RTVSPropertyOp35
 70
     1
102
RTVSPropertyOp36
 70
     1
102
RTVSPropertyOp37
 70
     1
102
RTVSPropertyOp38
 70
     1
102
RTVSPropertyOp39
 70
     1
102
RTVSPropertyOp40
 70
     1
102
RTVSPropertyOp41
 70
     1
102
RTVSPropertyOp42
 70
     1
102
RTVSPropertyOp43
 70
     1
102
RTVSPropertyOp44
 70
     1
102
RTVSPropertyOp45
 70
     1
102
RTVSPropertyOp46
 70
     1
102
RTVSPropertyOp47
 70
     1
102
RTVSPropertyOp48
 70
     1
102
RTVSPropertyOp49
 70
     1
102
RTVSPropertyOp50
 70
     1
102
RTVSPropertyOp51
 70
     0
102
RTVSPropertyOp52
 70
     0
102
RTVSPropertyOp53
 70
     1
102
RTVSPropertyOp54
 70
     1
102
RTVSPropertyOp55
 70
     1
102
RTVSPropertyOp56
 70
     1
102
RTVSPropertyOp57
 70
     1
102
RTVSPost2010Prop28
280
     0
102
RTVSPost2010PropOp28
 70
     1
102
RTVSPost2010Prop29
280
     1
102
RTVSPost2010PropOp29
 70
     1
102
RTVSPost2010Prop30
280
     1
102
RTVSPost2010PropOp30
 70
     1
102
RTVSPost2010Prop31
280
     0
102
RTVSPost2010PropOp31
 70
     1
102
RTVSPost2010Prop32
280
     0
102
RTVSPost2010PropOp32
 70
     1
102
RTVSPost2010Prop33
280
     0
102
RTVSPost2010PropOp33
 70
     1
102
RTVSPost2010Prop34
280
     0
102
RTVSPost2010PropOp34
 70
     1
102
RTVSPost2010Prop35
280
     0
102
RTVSPost2010PropOp35
 70
     1
102
RTVSPost2010Prop36
280
     0
102
RTVSPost2010PropOp36
 70
     1
102
RTVSPost2010Prop37
 90
       50
102
RTVSPost2010PropOp37
 70
     1
102
RTVSPost2010Prop38
140
0.0
102
RTVSPost2010PropOp38
 70
     1
102
RTVSPost2010Prop39
140
1.0
102
RTVSPost2010PropOp39
 70
     1
102
RTVSPost2010Prop40
 90
        0
102
RTVSPost2010PropOp40
 70
     1
102
RTVSPost2010Prop41ColorIndex
 90
       18
102
RTVSPost2010Prop41ColorRGB
 90
        0
102
RTVSPost2010PropOp41
 70
     1
102
RTVSPost2010Prop42
 90
       50
102
RTVSPost2010PropOp42
 70
     1
102
RTVSPost2010Prop43
 90
        3
102
RTVSPost2010PropOp43
 70
     1
102
RTVSPost2010Prop44ColorIndex
 90
        5
102
RTVSPost2010Prop44ColorRGB
 90
      255
102
RTVSPost2010PropOp44
 70
     1
102
RTVSPost2010Prop45
280
     0
102
RTVSPost2010PropOp45
 70
     1
102
RTVSPost2010Prop46
 90
       50
102
RTVSPost2010PropOp46
 70
     1
102
RTVSPost2010Prop47
 90
       50
102
RTVSPost2010PropOp47
 70
     1
102
RTVSPost2010Prop48
 90
       50
102
RTVSPost2010PropOp48
 70
     1
102
RTVSPost2010Prop49
280
     0
102
RTVSPost2010PropOp49
 70
     1
102
RTVSPost2010Prop50
 90
       50
102
RTVSPost2010PropOp50
 70
     1
102
RTVSPost2010Prop51ColorIndex
 90
      256
102
RTVSPost2010Prop51ColorRGB
 90
-16777216
102
RTVSPost2010PropOp51
 70
     0
102
RTVSPost2010Prop52
140
1.0
102
RTVSPost2010PropOp52
 70
     0
102
RTVSPost2010Prop53
 90
        2
102
RTVSPost2010PropOp53
 70
     1
102
RTVSPost2010Prop54
  1
strokes_ogs.tif
102
RTVSPost2010PropOp54
 70
     1
102
RTVSPost2010Prop55
280
     0
102
RTVSPost2010PropOp55
 70
     1
102
RTVSPost2010Prop56
140
1.0
102
RTVSPost2010PropOp56
 70
     1
102
RTVSPost2010Prop57
140
1.0
102
RTVSPost2010PropOp57
 70
     1
  0
XRECORD
  5
2FB
102
{ACAD_REACTORS
330
2FA
102
}
330
2FA
100
AcDbXrecord
280
     1
102
RTVSPropertyOp0
 70
     1
102
RTVSPropertyOp1
 70
     1
102
RTVSPropertyOp2
 70
     1
102
RTVSPropertyOp3
 70
     1
102
RTVSPropertyOp4
 70
     1
102
RTVSPropertyOp5
 70
     1
102
RTVSPropertyOp6
 70
     1
102
RTVSPropertyOp7
 70
     1
102
RTVSPropertyOp8
 70
     1
102
RTVSPropertyOp9
 70
     1
102
RTVSPropertyOp10
 70
     1
102
RTVSPropertyOp11
 70
     1
102
RTVSPropertyOp12
 70
     1
102
RTVSPropertyOp13
 70
     1
102
RTVSPropertyOp14
 70
     1
102
RTVSPropertyOp15
 70
     1
102
RTVSPropertyOp16
 70
     1
102
RTVSPropertyOp17
 70
     1
102
RTVSPropertyOp18
 70
     1
102
RTVSPropertyOp19
 70
     1
102
RTVSPropertyOp20
 70
     1
102
RTVSPropertyOp21
 70
     1
102
RTVSPropertyOp22
 70
     1
102
RTVSPropertyOp23
 70
     1
102
RTVSPropertyOp24
 70
     1
102
RTVSPropertyOp25
 70
     1
102
RTVSPropertyOp26
 70
     1
102
RTVSPropertyOp27
 70
     1
102
RTVSPropertyOp28
 70
     1
102
RTVSPropertyOp29
 70
     1
102
RTVSPropertyOp30
 70
     1
102
RTVSPropertyOp31
 70
     1
102
RTVSPropertyOp32
 70
     1
102
RTVSPropertyOp33
 70
     1
102
RTVSPropertyOp34
 70
     1
102
RTVSPropertyOp35
 70
     1
102
RTVSPropertyOp36
 70
     1
102
RTVSPropertyOp37
 70
     1
102
RTVSPropertyOp38
 70
     1
102
RTVSPropertyOp39
 70
     1
102
RTVSPropertyOp40
 70
     1
102
RTVSPropertyOp41
 70
     1
102
RTVSPropertyOp42
 70
     1
102
RTVSPropertyOp43
 70
     1
102
RTVSPropertyOp44
 70
     1
102
RTVSPropertyOp45
 70
     1
102
RTVSPropertyOp46
 70
     1
102
RTVSPropertyOp47
 70
     1
102
RTVSPropertyOp48
 70
     1
102
RTVSPropertyOp49
 70
     1
102
RTVSPropertyOp50
 70
     1
102
RTVSPropertyOp51
 70
     0
102
RTVSPropertyOp52
 70
     0
102
RTVSPropertyOp53
 70
     1
102
RTVSPropertyOp54
 70
     1
102
RTVSPropertyOp55
 70
     1
102
RTVSPropertyOp56
 70
     1
102
RTVSPropertyOp57
 70
     1
102
RTVSPost2010Prop28
280
     0
102
RTVSPost2010PropOp28
 70
     1
102
RTVSPost2010Prop29
280
     1
102
RTVSPost2010PropOp29
 70
     1
102
RTVSPost2010Prop30
280
     1
102
RTVSPost2010PropOp30
 70
     1
102
RTVSPost2010Prop31
280
     0
102
RTVSPost2010PropOp31
 70
     1
102
RTVSPost2010Prop32
280
     0
102
RTVSPost2010PropOp32
 70
     1
102
RTVSPost2010Prop33
280
     0
102
RTVSPost2010PropOp33
 70
     1
102
RTVSPost2010Prop34
280
     0
102
RTVSPost2010PropOp34
 70
     1
102
RTVSPost2010Prop35
280
     0
102
RTVSPost2010PropOp35
 70
     1
102
RTVSPost2010Prop36
280
     0
102
RTVSPost2010PropOp36
 70
     1
102
RTVSPost2010Prop37
 90
       50
102
RTVSPost2010PropOp37
 70
     1
102
RTVSPost2010Prop38
140
0.0
102
RTVSPost2010PropOp38
 70
     1
102
RTVSPost2010Prop39
140
1.0
102
RTVSPost2010PropOp39
 70
     1
102
RTVSPost2010Prop40
 90
        0
102
RTVSPost2010PropOp40
 70
     1
102
RTVSPost2010Prop41ColorIndex
 90
       18
102
RTVSPost2010Prop41ColorRGB
 90
        0
102
RTVSPost2010PropOp41
 70
     1
102
RTVSPost2010Prop42
 90
       50
102
RTVSPost2010PropOp42
 70
     1
102
RTVSPost2010Prop43
 90
        3
102
RTVSPost2010PropOp43
 70
     1
102
RTVSPost2010Prop44ColorIndex
 90
        5
102
RTVSPost2010Prop44ColorRGB
 90
      255
102
RTVSPost2010PropOp44
 70
     1
102
RTVSPost2010Prop45
280
     0
102
RTVSPost2010PropOp45
 70
     1
102
RTVSPost2010Prop46
 90
       50
102
RTVSPost2010PropOp46
 70
     1
102
RTVSPost2010Prop47
 90
       50
102
RTVSPost2010PropOp47
 70
     1
102
RTVSPost2010Prop48
 90
       50
102
RTVSPost2010PropOp48
 70
     1
102
RTVSPost2010Prop49
280
     0
102
RTVSPost2010PropOp49
 70
     1
102
RTVSPost2010Prop50
 90
       50
102
RTVSPost2010PropOp50
 70
     1
102
RTVSPost2010Prop51ColorIndex
 90
      256
102
RTVSPost2010Prop51ColorRGB
 90
-16777216
102
RTVSPost2010PropOp51
 70
     0
102
RTVSPost2010Prop52
140
1.0
102
RTVSPost2010PropOp52
 70
     0
102
RTVSPost2010Prop53
 90
        2
102
RTVSPost2010PropOp53
 70
     1
102
RTVSPost2010Prop54
  1
strokes_ogs.tif
102
RTVSPost2010PropOp54
 70
     1
102
RTVSPost2010Prop55
280
     0
102
RTVSPost2010PropOp55
 70
     1
102
RTVSPost2010Prop56
140
1.0
102
RTVSPost2010PropOp56
 70
     1
102
RTVSPost2010Prop57
140
1.0
102
RTVSPost2010PropOp57
 70
     1
  0
XRECORD
  5
31B
102
{ACAD_REACTORS
330
31A
102
}
330
31A
100
AcDbXrecord
280
     1
102
RTVSPropertyOp0
 70
     1
102
RTVSPropertyOp1
 70
     1
102
RTVSPropertyOp2
 70
     1
102
RTVSPropertyOp3
 70
     1
102
RTVSPropertyOp4
 70
     1
102
RTVSPropertyOp5
 70
     1
102
RTVSPropertyOp6
 70
     1
102
RTVSPropertyOp7
 70
     1
102
RTVSPropertyOp8
 70
     1
102
RTVSPropertyOp9
 70
     1
102
RTVSPropertyOp10
 70
     1
102
RTVSPropertyOp11
 70
     1
102
RTVSPropertyOp12
 70
     1
102
RTVSPropertyOp13
 70
     1
102
RTVSPropertyOp14
 70
     1
102
RTVSPropertyOp15
 70
     1
102
RTVSPropertyOp16
 70
     1
102
RTVSPropertyOp17
 70
     1
102
RTVSPropertyOp18
 70
     1
102
RTVSPropertyOp19
 70
     1
102
RTVSPropertyOp20
 70
     1
102
RTVSPropertyOp21
 70
     1
102
RTVSPropertyOp22
 70
     1
102
RTVSPropertyOp23
 70
     1
102
RTVSPropertyOp24
 70
     1
102
RTVSPropertyOp25
 70
     1
102
RTVSPropertyOp26
 70
     1
102
RTVSPropertyOp27
 70
     1
102
RTVSPropertyOp28
 70
     1
102
RTVSPropertyOp29
 70
     1
102
RTVSPropertyOp30
 70
     1
102
RTVSPropertyOp31
 70
     1
102
RTVSPropertyOp32
 70
     1
102
RTVSPropertyOp33
 70
     1
102
RTVSPropertyOp34
 70
     1
102
RTVSPropertyOp35
 70
     1
102
RTVSPropertyOp36
 70
     1
102
RTVSPropertyOp37
 70
     1
102
RTVSPropertyOp38
 70
     1
102
RTVSPropertyOp39
 70
     1
102
RTVSPropertyOp40
 70
     1
102
RTVSPropertyOp41
 70
     1
102
RTVSPropertyOp42
 70
     1
102
RTVSPropertyOp43
 70
     1
102
RTVSPropertyOp44
 70
     1
102
RTVSPropertyOp45
 70
     1
102
RTVSPropertyOp46
 70
     1
102
RTVSPropertyOp47
 70
     1
102
RTVSPropertyOp48
 70
     1
102
RTVSPropertyOp49
 70
     1
102
RTVSPropertyOp50
 70
     1
102
RTVSPropertyOp51
 70
     0
102
RTVSPropertyOp52
 70
     0
102
RTVSPropertyOp53
 70
     1
102
RTVSPropertyOp54
 70
     1
102
RTVSPropertyOp55
 70
     1
102
RTVSPropertyOp56
 70
     1
102
RTVSPropertyOp57
 70
     1
102
RTVSPost2010Prop28
280
     0
102
RTVSPost2010PropOp28
 70
     1
102
RTVSPost2010Prop29
280
     1
102
RTVSPost2010PropOp29
 70
     1
102
RTVSPost2010Prop30
280
     1
102
RTVSPost2010PropOp30
 70
     1
102
RTVSPost2010Prop31
280
     0
102
RTVSPost2010PropOp31
 70
     1
102
RTVSPost2010Prop32
280
     0
102
RTVSPost2010PropOp32
 70
     1
102
RTVSPost2010Prop33
280
     0
102
RTVSPost2010PropOp33
 70
     1
102
RTVSPost2010Prop34
280
     0
102
RTVSPost2010PropOp34
 70
     1
102
RTVSPost2010Prop35
280
     0
102
RTVSPost2010PropOp35
 70
     1
102
RTVSPost2010Prop36
280
     0
102
RTVSPost2010PropOp36
 70
     1
102
RTVSPost2010Prop37
 90
       50
102
RTVSPost2010PropOp37
 70
     1
102
RTVSPost2010Prop38
140
0.0
102
RTVSPost2010PropOp38
 70
     1
102
RTVSPost2010Prop39
140
1.0
102
RTVSPost2010PropOp39
 70
     1
102
RTVSPost2010Prop40
 90
        0
102
RTVSPost2010PropOp40
 70
     1
102
RTVSPost2010Prop41ColorIndex
 90
       18
102
RTVSPost2010Prop41ColorRGB
 90
        0
102
RTVSPost2010PropOp41
 70
     1
102
RTVSPost2010Prop42
 90
       50
102
RTVSPost2010PropOp42
 70
     1
102
RTVSPost2010Prop43
 90
        3
102
RTVSPost2010PropOp43
 70
     1
102
RTVSPost2010Prop44ColorIndex
 90
        5
102
RTVSPost2010Prop44ColorRGB
 90
      255
102
RTVSPost2010PropOp44
 70
     1
102
RTVSPost2010Prop45
280
     0
102
RTVSPost2010PropOp45
 70
     1
102
RTVSPost2010Prop46
 90
       50
102
RTVSPost2010PropOp46
 70
     1
102
RTVSPost2010Prop47
 90
       50
102
RTVSPost2010PropOp47
 70
     1
102
RTVSPost2010Prop48
 90
       50
102
RTVSPost2010PropOp48
 70
     1
102
RTVSPost2010Prop49
280
     0
102
RTVSPost2010PropOp49
 70
     1
102
RTVSPost2010Prop50
 90
       50
102
RTVSPost2010PropOp50
 70
     1
102
RTVSPost2010Prop51ColorIndex
 90
      256
102
RTVSPost2010Prop51ColorRGB
 90
-16777216
102
RTVSPost2010PropOp51
 70
     0
102
RTVSPost2010Prop52
140
1.0
102
RTVSPost2010PropOp52
 70
     0
102
RTVSPost2010Prop53
 90
        2
102
RTVSPost2010PropOp53
 70
     1
102
RTVSPost2010Prop54
  1
strokes_ogs.tif
102
RTVSPost2010PropOp54
 70
     1
102
RTVSPost2010Prop55
280
     0
102
RTVSPost2010PropOp55
 70
     1
102
RTVSPost2010Prop56
140
1.0
102
RTVSPost2010PropOp56
 70
     1
102
RTVSPost2010Prop57
140
1.0
102
RTVSPost2010PropOp57
 70
     1
  0
ENDSEC
  0
EOF
