  0
SECTION
  2
HEADER
  9
$ACADVER
  1
AC1018
  9
$ACADMAINTVER
 70
     0
  9
$DWGCODEPAGE
  3
ANSI_1252
  9
$INSBASE
 10
0.0
 20
0.0
 30
0.0
  9
$EXTMIN
 10
8.502335063877
 20
0.197607851972
 30
0.0
  9
$EXTMAX
 10
35.655592059289
 20
11.541907851972
 30
0.0
  9
$LIMMIN
 10
0.0
 20
0.0
  9
$LIMMAX
 10
420.0
 20
297.0
  9
$ORTHOMODE
 70
     0
  9
$REGENMODE
 70
     1
  9
$FILLMODE
 70
     1
  9
$QTEXTMODE
 70
     0
  9
$MIRRTEXT
 70
     1
  9
$LTSCALE
 40
1.0
  9
$ATTMODE
 70
     1
  9
$TEXTSIZE
 40
2.5
  9
$TRACEWID
 40
1.0
  9
$TEXTSTYLE
  7
Standard
  9
$CLAYER
  8
0
  9
$CELTYPE
  6
ByLayer
  9
$CECOLOR
 62
   256
  9
$CELTSCALE
 40
1.0
  9
$DISPSILH
 70
     0
  9
$DIMSCALE
 40
1.0
  9
$DIMASZ
 40
2.5
  9
$DIMEXO
 40
0.625
  9
$DIMDLI
 40
3.75
  9
$DIMRND
 40
0.0
  9
$DIMDLE
 40
0.0
  9
$DIMEXE
 40
1.25
  9
$DIMTP
 40
0.0
  9
$DIMTM
 40
0.0
  9
$DIMTXT
 40
2.5
  9
$DIMCEN
 40
2.5
  9
$DIMTSZ
 40
0.0
  9
$DIMTOL
 70
     0
  9
$DIMLIM
 70
     0
  9
$DIMTIH
 70
     0
  9
$DIMTOH
 70
     0
  9
$DIMSE1
 70
     0
  9
$DIMSE2
 70
     0
  9
$DIMTAD
 70
     1
  9
$DIMZIN
 70
     8
  9
$DIMBLK
  1

  9
$DIMASO
 70
     1
  9
$DIMSHO
 70
     1
  9
$DIMPOST
  1

  9
$DIMAPOST
  1

  9
$DIMALT
 70
     0
  9
$DIMALTD
 70
     3
  9
$DIMALTF
 40
0.03937007874
  9
$DIMLFAC
 40
1.0
  9
$DIMTOFL
 70
     1
  9
$DIMTVP
 40
0.0
  9
$DIMTIX
 70
     0
  9
$DIMSOXD
 70
     0
  9
$DIMSAH
 70
     0
  9
$DIMBLK1
  1

  9
$DIMBLK2
  1

  9
$DIMSTYLE
  2
ISO-25
  9
$DIMCLRD
 70
     0
  9
$DIMCLRE
 70
     0
  9
$DIMCLRT
 70
     0
  9
$DIMTFAC
 40
1.0
  9
$DIMGAP
 40
0.625
  9
$DIMJUST
 70
     0
  9
$DIMSD1
 70
     0
  9
$DIMSD2
 70
     0
  9
$DIMTOLJ
 70
     0
  9
$DIMTZIN
 70
     8
  9
$DIMALTZ
 70
     0
  9
$DIMALTTZ
 70
     0
  9
$DIMUPT
 70
     0
  9
$DIMDEC
 70
     2
  9
$DIMTDEC
 70
     2
  9
$DIMALTU
 70
     2
  9
$DIMALTTD
 70
     3
  9
$DIMTXSTY
  7
Standard
  9
$DIMAUNIT
 70
     0
  9
$DIMADEC
 70
     0
  9
$DIMALTRND
 40
0.0
  9
$DIMAZIN
 70
     0
  9
$DIMDSEP
 70
    44
  9
$DIMATFIT
 70
     3
  9
$DIMFRAC
 70
     0
  9
$DIMLDRBLK
  1

  9
$DIMLUNIT
 70
     2
  9
$DIMLWD
 70
    -2
  9
$DIMLWE
 70
    -2
  9
$DIMTMOVE
 70
     0
  9
$LUNITS
 70
     2
  9
$LUPREC
 70
     4
  9
$SKETCHINC
 40
1.0
  9
$FILLETRAD
 40
10.0
  9
$AUNITS
 70
     0
  9
$AUPREC
 70
     0
  9
$MENU
  1
.
  9
$ELEVATION
 40
0.0
  9
$PELEVATION
 40
0.0
  9
$THICKNESS
 40
0.0
  9
$LIMCHECK
 70
     0
  9
$CHAMFERA
 40
0.0
  9
$CHAMFERB
 40
0.0
  9
$CHAMFERC
 40
0.0
  9
$CHAMFERD
 40
0.0
  9
$SKPOLY
 70
     0
  9
$TDCREATE
 40
2457081.387661319
  9
$TDUCREATE
 40
2457081.679327986
  9
$TDUPDATE
 40
2457081.387679375
  9
$TDUUPDATE
 40
2457081.679346042
  9
$TDINDWG
 40
0.0000000116
  9
$TDUSRTIMER
 40
0.0000000116
  9
$USRTIMER
 70
     1
  9
$ANGBASE
 50
0.0
  9
$ANGDIR
 70
     0
  9
$PDMODE
 70
     2
  9
$PDSIZE
 40
1.0
  9
$PLINEWID
 40
0.0
  9
$SPLFRAME
 70
     0
  9
$SPLINETYPE
 70
     6
  9
$SPLINESEGS
 70
     8
  9
$HANDSEED
  5
32A
  9
$SURFTAB1
 70
     6
  9
$SURFTAB2
 70
     6
  9
$SURFTYPE
 70
     6
  9
$SURFU
 70
     6
  9
$SURFV
 70
     6
  9
$UCSBASE
  2

  9
$UCSNAME
  2

  9
$UCSORG
 10
0.0
 20
0.0
 30
0.0
  9
$UCSXDIR
 10
1.0
 20
0.0
 30
0.0
  9
$UCSYDIR
 10
0.0
 20
1.0
 30
0.0
  9
$UCSORTHOREF
  2

  9
$UCSORTHOVIEW
 70
     0
  9
$UCSORGTOP
 10
0.0
 20
0.0
 30
0.0
  9
$UCSORGBOTTOM
 10
0.0
 20
0.0
 30
0.0
  9
$UCSORGLEFT
 10
0.0
 20
0.0
 30
0.0
  9
$UCSORGRIGHT
 10
0.0
 20
0.0
 30
0.0
  9
$UCSORGFRONT
 10
0.0
 20
0.0
 30
0.0
  9
$UCSORGBACK
 10
0.0
 20
0.0
 30
0.0
  9
$PUCSBASE
  2

  9
$PUCSNAME
  2

  9
$PUCSORG
 10
0.0
 20
0.0
 30
0.0
  9
$PUCSXDIR
 10
1.0
 20
0.0
 30
0.0
  9
$PUCSYDIR
 10
0.0
 20
1.0
 30
0.0
  9
$PUCSORTHOREF
  2

  9
$PUCSORTHOVIEW
 70
     0
  9
$PUCSORGTOP
 10
0.0
 20
0.0
 30
0.0
  9
$PUCSORGBOTTOM
 10
0.0
 20
0.0
 30
0.0
  9
$PUCSORGLEFT
 10
0.0
 20
0.0
 30
0.0
  9
$PUCSORGRIGHT
 10
0.0
 20
0.0
 30
0.0
  9
$PUCSORGFRONT
 10
0.0
 20
0.0
 30
0.0
  9
$PUCSORGBACK
 10
0.0
 20
0.0
 30
0.0
  9
$USERI1
 70
     0
  9
$USERI2
 70
     0
  9
$USERI3
 70
     0
  9
$USERI4
 70
     0
  9
$USERI5
 70
     0
  9
$USERR1
 40
0.0
  9
$USERR2
 40
0.0
  9
$USERR3
 40
0.0
  9
$USERR4
 40
0.0
  9
$USERR5
 40
0.0
  9
$WORLDVIEW
 70
     1
  9
$SHADEDGE
 70
     3
  9
$SHADEDIF
 70
    70
  9
$TILEMODE
 70
     1
  9
$MAXACTVP
 70
    64
  9
$PINSBASE
 10
0.0
 20
0.0
 30
0.0
  9
$PLIMCHECK
 70
     0
  9
$PEXTMIN
 10
1.000000000000E+20
 20
1.000000000000E+20
 30
1.000000000000E+20
  9
$PEXTMAX
 10
-1.000000000000E+20
 20
-1.000000000000E+20
 30
-1.000000000000E+20
  9
$PLIMMIN
 10
0.0
 20
0.0
  9
$PLIMMAX
 10
420.0
 20
297.0
  9
$UNITMODE
 70
     0
  9
$VISRETAIN
 70
     1
  9
$PLINEGEN
 70
     0
  9
$PSLTSCALE
 70
     1
  9
$TREEDEPTH
 70
  3020
  9
$CMLSTYLE
  2
Standard
  9
$CMLJUST
 70
     0
  9
$CMLSCALE
 40
20.0
  9
$PROXYGRAPHICS
 70
     1
  9
$MEASUREMENT
 70
     1
  9
$CELWEIGHT
370
    -1
  9
$ENDCAPS
280
     0
  9
$JOINSTYLE
280
     0
  9
$LWDISPLAY
290
     0
  9
$INSUNITS
 70
     4
  9
$HYPERLINKBASE
  1

  9
$STYLESHEET
  1

  9
$XEDIT
290
     1
  9
$CEPSNTYPE
380
     0
  9
$PSTYLEMODE
290
     1
  9
$FINGERPRINTGUID
  2
{BA799F14-C150-4E28-BEA1-3FE2678BEA38}
  9
$VERSIONGUID
  2
{FAEB1C32-E019-11D5-929B-00C0DF256EC4}
  9
$EXTNAMES
290
     1
  9
$PSVPSCALE
 40
0.0
  9
$OLESTARTUP
290
     0
  9
$SORTENTS
280
   127
  9
$INDEXCTL
280
     0
  9
$HIDETEXT
280
     1
  9
$XCLIPFRAME
290
     0
  9
$HALOGAP
280
     0
  9
$OBSCOLOR
 70
   257
  9
$OBSLTYPE
280
     0
  9
$INTERSECTIONDISPLAY
280
     0
  9
$INTERSECTIONCOLOR
 70
   257
  9
$DIMASSOC
280
     2
  9
$PROJECTNAME
  1

  0
ENDSEC
  0
SECTION
  2
CLASSES
  0
CLASS
  1
ACDBDICTIONARYWDFLT
  2
AcDbDictionaryWithDefault
  3
ObjectDBX Classes
 90
        0
 91
        4
280
     0
281
     0
  0
CLASS
  1
VISUALSTYLE
  2
AcDbVisualStyle
  3
ObjectDBX Classes
 90
     4095
 91
        4
280
     0
281
     0
  0
CLASS
  1
MATERIAL
  2
AcDbMaterial
  3
ObjectDBX Classes
 90
     1153
 91
        4
280
     0
281
     0
  0
CLASS
  1
SCALE
  2
AcDbScale
  3
ObjectDBX Classes
 90
     1153
 91
        4
280
     0
281
     0
  0
CLASS
  1
SUN
  2
AcDbSun
  3
SCENEOE
 90
     1153
 91
        4
280
     0
281
     0
  0
CLASS
  1
WIPEOUTVARIABLES
  2
AcDbWipeoutVariables
  3
WipeOut|AutoCAD Express Tool|expresstools@autodesk.com
 90
        0
 91
        4
280
     0
281
     0
  0
CLASS
  1
WIPEOUT
  2
AcDbWipeout
  3
WipeOut|AutoCAD Express Tool|expresstools@autodesk.com
 90
      127
 91
        4
280
     0
281
     1
  0
CLASS
  1
DICTIONARYVAR
  2
AcDbDictionaryVar
  3
ObjectDBX Classes
 90
        0
 91
        4
280
     0
281
     0
  0
ENDSEC
  0
SECTION
  2
TABLES
  0
TABLE
  2
VPORT
  5
8
102
{ACAD_XDICTIONARY
360
2EB
102
}
330
0
100
AcDbSymbolTable
 70
     1
  0
VPORT
  5
29
330
8
100
AcDbSymbolTableRecord
100
AcDbViewportTableRecord
  2
*Active
 70
     0
 10
0.0
 20
0.0
 11
1.0
 21
1.0
 12
22.078963561583
 22
5.869757851972
 13
0.0
 23
0.0
 14
10.0
 24
10.0
 15
10.0
 25
10.0
 16
0.0
 26
0.0
 36
1.0
 17
0.0
 27
0.0
 37
0.0
 40
11.3443
 41
2.393559496435
 42
50.0
 43
0.0
 44
0.0
 50
0.0
 51
0.0
 71
     0
 72
   100
 73
     1
 74
     3
 75
     0
 76
     0
 77
     0
 78
     0
281
     0
 65
     1
110
0.0
120
0.0
130
0.0
111
1.0
121
0.0
131
0.0
112
0.0
122
1.0
132
0.0
 79
     0
146
0.0
  0
ENDTAB
  0
TABLE
  2
LTYPE
  5
5
330
0
100
AcDbSymbolTable
 70
     2
  0
LTYPE
  5
14
330
5
100
AcDbSymbolTableRecord
100
AcDbLinetypeTableRecord
  2
ByBlock
 70
     0
  3

 72
    65
 73
     0
 40
0.0
  0
LTYPE
  5
15
330
5
100
AcDbSymbolTableRecord
100
AcDbLinetypeTableRecord
  2
ByLayer
 70
     0
  3

 72
    65
 73
     0
 40
0.0
  0
LTYPE
  5
16
330
5
100
AcDbSymbolTableRecord
100
AcDbLinetypeTableRecord
  2
Continuous
 70
     0
  3
Solid line
 72
    65
 73
     0
 40
0.0
  0
LTYPE
  5
6B
330
5
100
AcDbSymbolTableRecord
100
AcDbLinetypeTableRecord
  2
AUSGEZOGEN
 70
     0
  3

 72
    65
 73
     0
 40
0.0
  0
ENDTAB
  0
TABLE
  2
LAYER
  5
2
330
0
100
AcDbSymbolTable
 70
   257
  0
LAYER
  5
10
330
2
100
AcDbSymbolTableRecord
100
AcDbLayerTableRecord
  2
0
 70
     0
 62
     7
  6
Continuous
370
    -3
390
F
  0
LAYER
  5
70
330
2
100
AcDbSymbolTableRecord
100
AcDbLayerTableRecord
  2
PROFILE
 70
     0
 62
     7
  6
Continuous
370
    -3
390
F
  0
LAYER
  5
71
330
2
100
AcDbSymbolTableRecord
100
AcDbLayerTableRecord
  2
TEXT
 70
     0
 62
     7
  6
Continuous
370
    -3
390
F
  0
LAYER
  5
72
330
2
100
AcDbSymbolTableRecord
100
AcDbLayerTableRecord
  2
Layer2
 70
     0
 62
     7
  6
Continuous
370
    -3
390
F
  0
LAYER
  5
73
330
2
100
AcDbSymbolTableRecord
100
AcDbLayerTableRecord
  2
Layer3
 70
     0
 62
     7
  6
Continuous
370
    -3
390
F
  0
LAYER
  5
74
330
2
100
AcDbSymbolTableRecord
100
AcDbLayerTableRecord
  2
Layer4
 70
     0
 62
     7
  6
Continuous
370
    -3
390
F
  0
LAYER
  5
75
330
2
100
AcDbSymbolTableRecord
100
AcDbLayerTableRecord
  2
Layer5
 70
     0
 62
     7
  6
Continuous
370
    -3
390
F
  0
LAYER
  5
76
330
2
100
AcDbSymbolTableRecord
100
AcDbLayerTableRecord
  2
Layer6
 70
     0
 62
     7
  6
Continuous
370
    -3
390
F
  0
LAYER
  5
77
330
2
100
AcDbSymbolTableRecord
100
AcDbLayerTableRecord
  2
Layer7
 70
     0
 62
     7
  6
Continuous
370
    -3
390
F
  0
LAYER
  5
78
330
2
100
AcDbSymbolTableRecord
100
AcDbLayerTableRecord
  2
Layer8
 70
     0
 62
     7
  6
Continuous
370
    -3
390
F
  0
LAYER
  5
79
330
2
100
AcDbSymbolTableRecord
100
AcDbLayerTableRecord
  2
Layer9
 70
     0
 62
     7
  6
Continuous
370
    -3
390
F
  0
LAYER
  5
7A
330
2
100
AcDbSymbolTableRecord
100
AcDbLayerTableRecord
  2
Layer10
 70
     0
 62
     7
  6
Continuous
370
    -3
390
F
  0
LAYER
  5
7B
330
2
100
AcDbSymbolTableRecord
100
AcDbLayerTableRecord
  2
Layer11
 70
     0
 62
     7
  6
Continuous
370
    -3
390
F
  0
LAYER
  5
7C
330
2
100
AcDbSymbolTableRecord
100
AcDbLayerTableRecord
  2
Layer12
 70
     0
 62
     7
  6
Continuous
370
    -3
390
F
  0
LAYER
  5
7D
330
2
100
AcDbSymbolTableRecord
100
AcDbLayerTableRecord
  2
Layer13
 70
     0
 62
     7
  6
Continuous
370
    -3
390
F
  0
LAYER
  5
7E
330
2
100
AcDbSymbolTableRecord
100
AcDbLayerTableRecord
  2
Layer14
 70
     0
 62
     7
  6
Continuous
370
    -3
390
F
  0
LAYER
  5
7F
330
2
100
AcDbSymbolTableRecord
100
AcDbLayerTableRecord
  2
Layer15
 70
     0
 62
     7
  6
Continuous
370
    -3
390
F
  0
LAYER
  5
80
330
2
100
AcDbSymbolTableRecord
100
AcDbLayerTableRecord
  2
Layer16
 70
     0
 62
     7
  6
Continuous
370
    -3
390
F
  0
LAYER
  5
81
330
2
100
AcDbSymbolTableRecord
100
AcDbLayerTableRecord
  2
Layer17
 70
     0
 62
     7
  6
Continuous
370
    -3
390
F
  0
LAYER
  5
82
330
2
100
AcDbSymbolTableRecord
100
AcDbLayerTableRecord
  2
Layer18
 70
     0
 62
     7
  6
Continuous
370
    -3
390
F
  0
LAYER
  5
83
330
2
100
AcDbSymbolTableRecord
100
AcDbLayerTableRecord
  2
Layer19
 70
     0
 62
     7
  6
Continuous
370
    -3
390
F
  0
LAYER
  5
84
330
2
100
AcDbSymbolTableRecord
100
AcDbLayerTableRecord
  2
Layer20
 70
     0
 62
     7
  6
Continuous
370
    -3
390
F
  0
LAYER
  5
85
330
2
100
AcDbSymbolTableRecord
100
AcDbLayerTableRecord
  2
Layer21
 70
     0
 62
     7
  6
Continuous
370
    -3
390
F
  0
LAYER
  5
86
330
2
100
AcDbSymbolTableRecord
100
AcDbLayerTableRecord
  2
Layer22
 70
     0
 62
     7
  6
Continuous
370
    -3
390
F
  0
LAYER
  5
87
330
2
100
AcDbSymbolTableRecord
100
AcDbLayerTableRecord
  2
Layer23
 70
     0
 62
     7
  6
Continuous
370
    -3
390
F
  0
LAYER
  5
88
330
2
100
AcDbSymbolTableRecord
100
AcDbLayerTableRecord
  2
Layer24
 70
     0
 62
     7
  6
Continuous
370
    -3
390
F
  0
LAYER
  5
89
330
2
100
AcDbSymbolTableRecord
100
AcDbLayerTableRecord
  2
Layer25
 70
     0
 62
     7
  6
Continuous
370
    -3
390
F
  0
LAYER
  5
8A
330
2
100
AcDbSymbolTableRecord
100
AcDbLayerTableRecord
  2
Layer26
 70
     0
 62
     7
  6
Continuous
370
    -3
390
F
  0
LAYER
  5
8B
330
2
100
AcDbSymbolTableRecord
100
AcDbLayerTableRecord
  2
Layer27
 70
     0
 62
     7
  6
Continuous
370
    -3
390
F
  0
LAYER
  5
8C
330
2
100
AcDbSymbolTableRecord
100
AcDbLayerTableRecord
  2
Layer28
 70
     0
 62
     7
  6
Continuous
370
    -3
390
F
  0
LAYER
  5
8D
330
2
100
AcDbSymbolTableRecord
100
AcDbLayerTableRecord
  2
Layer29
 70
     0
 62
     7
  6
Continuous
370
    -3
390
F
  0
LAYER
  5
8E
330
2
100
AcDbSymbolTableRecord
100
AcDbLayerTableRecord
  2
Layer30
 70
     0
 62
     7
  6
Continuous
370
    -3
390
F
  0
LAYER
  5
8F
330
2
100
AcDbSymbolTableRecord
100
AcDbLayerTableRecord
  2
Layer31
 70
     0
 62
     7
  6
Continuous
370
    -3
390
F
  0
LAYER
  5
90
330
2
100
AcDbSymbolTableRecord
100
AcDbLayerTableRecord
  2
Layer32
 70
     0
 62
     7
  6
Continuous
370
    -3
390
F
  0
LAYER
  5
91
330
2
100
AcDbSymbolTableRecord
100
AcDbLayerTableRecord
  2
Layer33
 70
     0
 62
     7
  6
Continuous
370
    -3
390
F
  0
LAYER
  5
92
330
2
100
AcDbSymbolTableRecord
100
AcDbLayerTableRecord
  2
Layer34
 70
     0
 62
     7
  6
Continuous
370
    -3
390
F
  0
LAYER
  5
93
330
2
100
AcDbSymbolTableRecord
100
AcDbLayerTableRecord
  2
Layer35
 70
     0
 62
     7
  6
Continuous
370
    -3
390
F
  0
LAYER
  5
94
330
2
100
AcDbSymbolTableRecord
100
AcDbLayerTableRecord
  2
Layer36
 70
     0
 62
     7
  6
Continuous
370
    -3
390
F
  0
LAYER
  5
95
330
2
100
AcDbSymbolTableRecord
100
AcDbLayerTableRecord
  2
Layer37
 70
     0
 62
     7
  6
Continuous
370
    -3
390
F
  0
LAYER
  5
96
330
2
100
AcDbSymbolTableRecord
100
AcDbLayerTableRecord
  2
Layer38
 70
     0
 62
     7
  6
Continuous
370
    -3
390
F
  0
LAYER
  5
97
330
2
100
AcDbSymbolTableRecord
100
AcDbLayerTableRecord
  2
Layer39
 70
     0
 62
     7
  6
Continuous
370
    -3
390
F
  0
LAYER
  5
98
330
2
100
AcDbSymbolTableRecord
100
AcDbLayerTableRecord
  2
Layer40
 70
     0
 62
     7
  6
Continuous
370
    -3
390
F
  0
LAYER
  5
99
330
2
100
AcDbSymbolTableRecord
100
AcDbLayerTableRecord
  2
Layer41
 70
     0
 62
     7
  6
Continuous
370
    -3
390
F
  0
LAYER
  5
9A
330
2
100
AcDbSymbolTableRecord
100
AcDbLayerTableRecord
  2
Layer42
 70
     0
 62
     7
  6
Continuous
370
    -3
390
F
  0
LAYER
  5
9B
330
2
100
AcDbSymbolTableRecord
100
AcDbLayerTableRecord
  2
Layer43
 70
     0
 62
     7
  6
Continuous
370
    -3
390
F
  0
LAYER
  5
9C
330
2
100
AcDbSymbolTableRecord
100
AcDbLayerTableRecord
  2
Layer44
 70
     0
 62
     7
  6
Continuous
370
    -3
390
F
  0
LAYER
  5
9D
330
2
100
AcDbSymbolTableRecord
100
AcDbLayerTableRecord
  2
Layer45
 70
     0
 62
     7
  6
Continuous
370
    -3
390
F
  0
LAYER
  5
9E
330
2
100
AcDbSymbolTableRecord
100
AcDbLayerTableRecord
  2
Layer46
 70
     0
 62
     7
  6
Continuous
370
    -3
390
F
  0
LAYER
  5
9F
330
2
100
AcDbSymbolTableRecord
100
AcDbLayerTableRecord
  2
Layer47
 70
     0
 62
     7
  6
Continuous
370
    -3
390
F
  0
LAYER
  5
A0
330
2
100
AcDbSymbolTableRecord
100
AcDbLayerTableRecord
  2
Layer48
 70
     0
 62
     7
  6
Continuous
370
    -3
390
F
  0
LAYER
  5
A1
330
2
100
AcDbSymbolTableRecord
100
AcDbLayerTableRecord
  2
Layer49
 70
     0
 62
     7
  6
Continuous
370
    -3
390
F
  0
LAYER
  5
A2
330
2
100
AcDbSymbolTableRecord
100
AcDbLayerTableRecord
  2
Layer50
 70
     0
 62
     7
  6
Continuous
370
    -3
390
F
  0
LAYER
  5
A3
330
2
100
AcDbSymbolTableRecord
100
AcDbLayerTableRecord
  2
Layer51
 70
     0
 62
     7
  6
Continuous
370
    -3
390
F
  0
LAYER
  5
A4
330
2
100
AcDbSymbolTableRecord
100
AcDbLayerTableRecord
  2
Layer52
 70
     0
 62
     7
  6
Continuous
370
    -3
390
F
  0
LAYER
  5
A5
330
2
100
AcDbSymbolTableRecord
100
AcDbLayerTableRecord
  2
Layer53
 70
     0
 62
     7
  6
Continuous
370
    -3
390
F
  0
LAYER
  5
A6
330
2
100
AcDbSymbolTableRecord
100
AcDbLayerTableRecord
  2
Layer54
 70
     0
 62
     7
  6
Continuous
370
    -3
390
F
  0
LAYER
  5
A7
330
2
100
AcDbSymbolTableRecord
100
AcDbLayerTableRecord
  2
Layer55
 70
     0
 62
     7
  6
Continuous
370
    -3
390
F
  0
LAYER
  5
A8
330
2
100
AcDbSymbolTableRecord
100
AcDbLayerTableRecord
  2
Layer56
 70
     0
 62
     7
  6
Continuous
370
    -3
390
F
  0
LAYER
  5
A9
330
2
100
AcDbSymbolTableRecord
100
AcDbLayerTableRecord
  2
Layer57
 70
     0
 62
     7
  6
Continuous
370
    -3
390
F
  0
LAYER
  5
AA
330
2
100
AcDbSymbolTableRecord
100
AcDbLayerTableRecord
  2
Layer58
 70
     0
 62
     7
  6
Continuous
370
    -3
390
F
  0
LAYER
  5
AB
330
2
100
AcDbSymbolTableRecord
100
AcDbLayerTableRecord
  2
Layer59
 70
     0
 62
     7
  6
Continuous
370
    -3
390
F
  0
LAYER
  5
AC
330
2
100
AcDbSymbolTableRecord
100
AcDbLayerTableRecord
  2
Layer60
 70
     0
 62
     7
  6
Continuous
370
    -3
390
F
  0
LAYER
  5
AD
330
2
100
AcDbSymbolTableRecord
100
AcDbLayerTableRecord
  2
Layer61
 70
     0
 62
     7
  6
Continuous
370
    -3
390
F
  0
LAYER
  5
AE
330
2
100
AcDbSymbolTableRecord
100
AcDbLayerTableRecord
  2
Layer62
 70
     0
 62
     7
  6
Continuous
370
    -3
390
F
  0
LAYER
  5
AF
330
2
100
AcDbSymbolTableRecord
100
AcDbLayerTableRecord
  2
Layer63
 70
     0
 62
     7
  6
Continuous
370
    -3
390
F
  0
LAYER
  5
B0
330
2
100
AcDbSymbolTableRecord
100
AcDbLayerTableRecord
  2
Layer64
 70
     0
 62
     7
  6
Continuous
370
    -3
390
F
  0
LAYER
  5
B1
330
2
100
AcDbSymbolTableRecord
100
AcDbLayerTableRecord
  2
Layer65
 70
     0
 62
     7
  6
Continuous
370
    -3
390
F
  0
LAYER
  5
B2
330
2
100
AcDbSymbolTableRecord
100
AcDbLayerTableRecord
  2
Layer66
 70
     0
 62
     7
  6
Continuous
370
    -3
390
F
  0
LAYER
  5
B3
330
2
100
AcDbSymbolTableRecord
100
AcDbLayerTableRecord
  2
Layer67
 70
     0
 62
     7
  6
Continuous
370
    -3
390
F
  0
LAYER
  5
B4
330
2
100
AcDbSymbolTableRecord
100
AcDbLayerTableRecord
  2
Layer68
 70
     0
 62
     7
  6
Continuous
370
    -3
390
F
  0
LAYER
  5
B5
330
2
100
AcDbSymbolTableRecord
100
AcDbLayerTableRecord
  2
Layer69
 70
     0
 62
     7
  6
Continuous
370
    -3
390
F
  0
LAYER
  5
B6
330
2
100
AcDbSymbolTableRecord
100
AcDbLayerTableRecord
  2
Layer70
 70
     0
 62
     7
  6
Continuous
370
    -3
390
F
  0
LAYER
  5
B7
330
2
100
AcDbSymbolTableRecord
100
AcDbLayerTableRecord
  2
Layer71
 70
     0
 62
     7
  6
Continuous
370
    -3
390
F
  0
LAYER
  5
B8
330
2
100
AcDbSymbolTableRecord
100
AcDbLayerTableRecord
  2
Layer72
 70
     0
 62
     7
  6
Continuous
370
    -3
390
F
  0
LAYER
  5
B9
330
2
100
AcDbSymbolTableRecord
100
AcDbLayerTableRecord
  2
Layer73
 70
     0
 62
     7
  6
Continuous
370
    -3
390
F
  0
LAYER
  5
BA
330
2
100
AcDbSymbolTableRecord
100
AcDbLayerTableRecord
  2
Layer74
 70
     0
 62
     7
  6
Continuous
370
    -3
390
F
  0
LAYER
  5
BB
330
2
100
AcDbSymbolTableRecord
100
AcDbLayerTableRecord
  2
Layer75
 70
     0
 62
     7
  6
Continuous
370
    -3
390
F
  0
LAYER
  5
BC
330
2
100
AcDbSymbolTableRecord
100
AcDbLayerTableRecord
  2
Layer76
 70
     0
 62
     7
  6
Continuous
370
    -3
390
F
  0
LAYER
  5
BD
330
2
100
AcDbSymbolTableRecord
100
AcDbLayerTableRecord
  2
Layer77
 70
     0
 62
     7
  6
Continuous
370
    -3
390
F
  0
LAYER
  5
BE
330
2
100
AcDbSymbolTableRecord
100
AcDbLayerTableRecord
  2
Layer78
 70
     0
 62
     7
  6
Continuous
370
    -3
390
F
  0
LAYER
  5
BF
330
2
100
AcDbSymbolTableRecord
100
AcDbLayerTableRecord
  2
Layer79
 70
     0
 62
     7
  6
Continuous
370
    -3
390
F
  0
LAYER
  5
C0
330
2
100
AcDbSymbolTableRecord
100
AcDbLayerTableRecord
  2
Layer80
 70
     0
 62
     7
  6
Continuous
370
    -3
390
F
  0
LAYER
  5
C1
330
2
100
AcDbSymbolTableRecord
100
AcDbLayerTableRecord
  2
Layer81
 70
     0
 62
     7
  6
Continuous
370
    -3
390
F
  0
LAYER
  5
C2
330
2
100
AcDbSymbolTableRecord
100
AcDbLayerTableRecord
  2
Layer82
 70
     0
 62
     7
  6
Continuous
370
    -3
390
F
  0
LAYER
  5
C3
330
2
100
AcDbSymbolTableRecord
100
AcDbLayerTableRecord
  2
Layer83
 70
     0
 62
     7
  6
Continuous
370
    -3
390
F
  0
LAYER
  5
C4
330
2
100
AcDbSymbolTableRecord
100
AcDbLayerTableRecord
  2
Layer84
 70
     0
 62
     7
  6
Continuous
370
    -3
390
F
  0
LAYER
  5
C5
330
2
100
AcDbSymbolTableRecord
100
AcDbLayerTableRecord
  2
Layer85
 70
     0
 62
     7
  6
Continuous
370
    -3
390
F
  0
LAYER
  5
C6
330
2
100
AcDbSymbolTableRecord
100
AcDbLayerTableRecord
  2
Layer86
 70
     0
 62
     7
  6
Continuous
370
    -3
390
F
  0
LAYER
  5
C7
330
2
100
AcDbSymbolTableRecord
100
AcDbLayerTableRecord
  2
Layer87
 70
     0
 62
     7
  6
Continuous
370
    -3
390
F
  0
LAYER
  5
C8
330
2
100
AcDbSymbolTableRecord
100
AcDbLayerTableRecord
  2
Layer88
 70
     0
 62
     7
  6
Continuous
370
    -3
390
F
  0
LAYER
  5
C9
330
2
100
AcDbSymbolTableRecord
100
AcDbLayerTableRecord
  2
Layer89
 70
     0
 62
     7
  6
Continuous
370
    -3
390
F
  0
LAYER
  5
CA
330
2
100
AcDbSymbolTableRecord
100
AcDbLayerTableRecord
  2
Layer90
 70
     0
 62
     7
  6
Continuous
370
    -3
390
F
  0
LAYER
  5
CB
330
2
100
AcDbSymbolTableRecord
100
AcDbLayerTableRecord
  2
Layer91
 70
     0
 62
     7
  6
Continuous
370
    -3
390
F
  0
LAYER
  5
CC
330
2
100
AcDbSymbolTableRecord
100
AcDbLayerTableRecord
  2
Layer92
 70
     0
 62
     7
  6
Continuous
370
    -3
390
F
  0
LAYER
  5
CD
330
2
100
AcDbSymbolTableRecord
100
AcDbLayerTableRecord
  2
Layer93
 70
     0
 62
     7
  6
Continuous
370
    -3
390
F
  0
LAYER
  5
CE
330
2
100
AcDbSymbolTableRecord
100
AcDbLayerTableRecord
  2
Layer94
 70
     0
 62
     7
  6
Continuous
370
    -3
390
F
  0
LAYER
  5
CF
330
2
100
AcDbSymbolTableRecord
100
AcDbLayerTableRecord
  2
Layer95
 70
     0
 62
     7
  6
Continuous
370
    -3
390
F
  0
LAYER
  5
D0
330
2
100
AcDbSymbolTableRecord
100
AcDbLayerTableRecord
  2
Layer96
 70
     0
 62
     7
  6
Continuous
370
    -3
390
F
  0
LAYER
  5
D1
330
2
100
AcDbSymbolTableRecord
100
AcDbLayerTableRecord
  2
Layer97
 70
     0
 62
     7
  6
Continuous
370
    -3
390
F
  0
LAYER
  5
D2
330
2
100
AcDbSymbolTableRecord
100
AcDbLayerTableRecord
  2
Layer98
 70
     0
 62
     7
  6
Continuous
370
    -3
390
F
  0
LAYER
  5
D3
330
2
100
AcDbSymbolTableRecord
100
AcDbLayerTableRecord
  2
Layer99
 70
     0
 62
     7
  6
Continuous
370
    -3
390
F
  0
LAYER
  5
D4
330
2
100
AcDbSymbolTableRecord
100
AcDbLayerTableRecord
  2
Layer100
 70
     0
 62
     7
  6
Continuous
370
    -3
390
F
  0
LAYER
  5
D5
330
2
100
AcDbSymbolTableRecord
100
AcDbLayerTableRecord
  2
Layer101
 70
     0
 62
     7
  6
Continuous
370
    -3
390
F
  0
LAYER
  5
D6
330
2
100
AcDbSymbolTableRecord
100
AcDbLayerTableRecord
  2
Layer102
 70
     0
 62
     7
  6
Continuous
370
    -3
390
F
  0
LAYER
  5
D7
330
2
100
AcDbSymbolTableRecord
100
AcDbLayerTableRecord
  2
Layer103
 70
     0
 62
     7
  6
Continuous
370
    -3
390
F
  0
LAYER
  5
D8
330
2
100
AcDbSymbolTableRecord
100
AcDbLayerTableRecord
  2
Layer104
 70
     0
 62
     7
  6
Continuous
370
    -3
390
F
  0
LAYER
  5
D9
330
2
100
AcDbSymbolTableRecord
100
AcDbLayerTableRecord
  2
Layer105
 70
     0
 62
     7
  6
Continuous
370
    -3
390
F
  0
LAYER
  5
DA
330
2
100
AcDbSymbolTableRecord
100
AcDbLayerTableRecord
  2
Layer106
 70
     0
 62
     7
  6
Continuous
370
    -3
390
F
  0
LAYER
  5
DB
330
2
100
AcDbSymbolTableRecord
100
AcDbLayerTableRecord
  2
Layer107
 70
     0
 62
     7
  6
Continuous
370
    -3
390
F
  0
LAYER
  5
DC
330
2
100
AcDbSymbolTableRecord
100
AcDbLayerTableRecord
  2
Layer108
 70
     0
 62
     7
  6
Continuous
370
    -3
390
F
  0
LAYER
  5
DD
330
2
100
AcDbSymbolTableRecord
100
AcDbLayerTableRecord
  2
Layer109
 70
     0
 62
     7
  6
Continuous
370
    -3
390
F
  0
LAYER
  5
DE
330
2
100
AcDbSymbolTableRecord
100
AcDbLayerTableRecord
  2
Layer110
 70
     0
 62
     7
  6
Continuous
370
    -3
390
F
  0
LAYER
  5
DF
330
2
100
AcDbSymbolTableRecord
100
AcDbLayerTableRecord
  2
Layer111
 70
     0
 62
     7
  6
Continuous
370
    -3
390
F
  0
LAYER
  5
E0
330
2
100
AcDbSymbolTableRecord
100
AcDbLayerTableRecord
  2
Layer112
 70
     0
 62
     7
  6
Continuous
370
    -3
390
F
  0
LAYER
  5
E1
330
2
100
AcDbSymbolTableRecord
100
AcDbLayerTableRecord
  2
Layer113
 70
     0
 62
     7
  6
Continuous
370
    -3
390
F
  0
LAYER
  5
E2
330
2
100
AcDbSymbolTableRecord
100
AcDbLayerTableRecord
  2
Layer114
 70
     0
 62
     7
  6
Continuous
370
    -3
390
F
  0
LAYER
  5
E3
330
2
100
AcDbSymbolTableRecord
100
AcDbLayerTableRecord
  2
Layer115
 70
     0
 62
     7
  6
Continuous
370
    -3
390
F
  0
LAYER
  5
E4
330
2
100
AcDbSymbolTableRecord
100
AcDbLayerTableRecord
  2
Layer116
 70
     0
 62
     7
  6
Continuous
370
    -3
390
F
  0
LAYER
  5
E5
330
2
100
AcDbSymbolTableRecord
100
AcDbLayerTableRecord
  2
Layer117
 70
     0
 62
     7
  6
Continuous
370
    -3
390
F
  0
LAYER
  5
E6
330
2
100
AcDbSymbolTableRecord
100
AcDbLayerTableRecord
  2
Layer118
 70
     0
 62
     7
  6
Continuous
370
    -3
390
F
  0
LAYER
  5
E7
330
2
100
AcDbSymbolTableRecord
100
AcDbLayerTableRecord
  2
Layer119
 70
     0
 62
     7
  6
Continuous
370
    -3
390
F
  0
LAYER
  5
E8
330
2
100
AcDbSymbolTableRecord
100
AcDbLayerTableRecord
  2
Layer120
 70
     0
 62
     7
  6
Continuous
370
    -3
390
F
  0
LAYER
  5
E9
330
2
100
AcDbSymbolTableRecord
100
AcDbLayerTableRecord
  2
Layer121
 70
     0
 62
     7
  6
Continuous
370
    -3
390
F
  0
LAYER
  5
EA
330
2
100
AcDbSymbolTableRecord
100
AcDbLayerTableRecord
  2
Layer122
 70
     0
 62
     7
  6
Continuous
370
    -3
390
F
  0
LAYER
  5
EB
330
2
100
AcDbSymbolTableRecord
100
AcDbLayerTableRecord
  2
Layer123
 70
     0
 62
     7
  6
Continuous
370
    -3
390
F
  0
LAYER
  5
EC
330
2
100
AcDbSymbolTableRecord
100
AcDbLayerTableRecord
  2
Layer124
 70
     0
 62
     7
  6
Continuous
370
    -3
390
F
  0
LAYER
  5
ED
330
2
100
AcDbSymbolTableRecord
100
AcDbLayerTableRecord
  2
Layer125
 70
     0
 62
     7
  6
Continuous
370
    -3
390
F
  0
LAYER
  5
EE
330
2
100
AcDbSymbolTableRecord
100
AcDbLayerTableRecord
  2
Layer126
 70
     0
 62
     7
  6
Continuous
370
    -3
390
F
  0
LAYER
  5
EF
330
2
100
AcDbSymbolTableRecord
100
AcDbLayerTableRecord
  2
Layer127
 70
     0
 62
     7
  6
Continuous
370
    -3
390
F
  0
LAYER
  5
F0
330
2
100
AcDbSymbolTableRecord
100
AcDbLayerTableRecord
  2
Layer128
 70
     0
 62
     7
  6
Continuous
370
    -3
390
F
  0
LAYER
  5
F1
330
2
100
AcDbSymbolTableRecord
100
AcDbLayerTableRecord
  2
Layer129
 70
     0
 62
     7
  6
Continuous
370
    -3
390
F
  0
LAYER
  5
F2
330
2
100
AcDbSymbolTableRecord
100
AcDbLayerTableRecord
  2
Layer130
 70
     0
 62
     7
  6
Continuous
370
    -3
390
F
  0
LAYER
  5
F3
330
2
100
AcDbSymbolTableRecord
100
AcDbLayerTableRecord
  2
Layer131
 70
     0
 62
     7
  6
Continuous
370
    -3
390
F
  0
LAYER
  5
F4
330
2
100
AcDbSymbolTableRecord
100
AcDbLayerTableRecord
  2
Layer132
 70
     0
 62
     7
  6
Continuous
370
    -3
390
F
  0
LAYER
  5
F5
330
2
100
AcDbSymbolTableRecord
100
AcDbLayerTableRecord
  2
Layer133
 70
     0
 62
     7
  6
Continuous
370
    -3
390
F
  0
LAYER
  5
F6
330
2
100
AcDbSymbolTableRecord
100
AcDbLayerTableRecord
  2
Layer134
 70
     0
 62
     7
  6
Continuous
370
    -3
390
F
  0
LAYER
  5
F7
330
2
100
AcDbSymbolTableRecord
100
AcDbLayerTableRecord
  2
Layer135
 70
     0
 62
     7
  6
Continuous
370
    -3
390
F
  0
LAYER
  5
F8
330
2
100
AcDbSymbolTableRecord
100
AcDbLayerTableRecord
  2
Layer136
 70
     0
 62
     7
  6
Continuous
370
    -3
390
F
  0
LAYER
  5
F9
330
2
100
AcDbSymbolTableRecord
100
AcDbLayerTableRecord
  2
Layer137
 70
     0
 62
     7
  6
Continuous
370
    -3
390
F
  0
LAYER
  5
FA
330
2
100
AcDbSymbolTableRecord
100
AcDbLayerTableRecord
  2
Layer138
 70
     0
 62
     7
  6
Continuous
370
    -3
390
F
  0
LAYER
  5
FB
330
2
100
AcDbSymbolTableRecord
100
AcDbLayerTableRecord
  2
Layer139
 70
     0
 62
     7
  6
Continuous
370
    -3
390
F
  0
LAYER
  5
FC
330
2
100
AcDbSymbolTableRecord
100
AcDbLayerTableRecord
  2
Layer140
 70
     0
 62
     7
  6
Continuous
370
    -3
390
F
  0
LAYER
  5
FD
330
2
100
AcDbSymbolTableRecord
100
AcDbLayerTableRecord
  2
Layer141
 70
     0
 62
     7
  6
Continuous
370
    -3
390
F
  0
LAYER
  5
FE
330
2
100
AcDbSymbolTableRecord
100
AcDbLayerTableRecord
  2
Layer142
 70
     0
 62
     7
  6
Continuous
370
    -3
390
F
  0
LAYER
  5
FF
330
2
100
AcDbSymbolTableRecord
100
AcDbLayerTableRecord
  2
Layer143
 70
     0
 62
     7
  6
Continuous
370
    -3
390
F
  0
LAYER
  5
100
330
2
100
AcDbSymbolTableRecord
100
AcDbLayerTableRecord
  2
Layer144
 70
     0
 62
     7
  6
Continuous
370
    -3
390
F
  0
LAYER
  5
101
330
2
100
AcDbSymbolTableRecord
100
AcDbLayerTableRecord
  2
Layer145
 70
     0
 62
     7
  6
Continuous
370
    -3
390
F
  0
LAYER
  5
102
330
2
100
AcDbSymbolTableRecord
100
AcDbLayerTableRecord
  2
Layer146
 70
     0
 62
     7
  6
Continuous
370
    -3
390
F
  0
LAYER
  5
103
330
2
100
AcDbSymbolTableRecord
100
AcDbLayerTableRecord
  2
Layer147
 70
     0
 62
     7
  6
Continuous
370
    -3
390
F
  0
LAYER
  5
104
330
2
100
AcDbSymbolTableRecord
100
AcDbLayerTableRecord
  2
Layer148
 70
     0
 62
     7
  6
Continuous
370
    -3
390
F
  0
LAYER
  5
105
330
2
100
AcDbSymbolTableRecord
100
AcDbLayerTableRecord
  2
Layer149
 70
     0
 62
     7
  6
Continuous
370
    -3
390
F
  0
LAYER
  5
106
330
2
100
AcDbSymbolTableRecord
100
AcDbLayerTableRecord
  2
Layer150
 70
     0
 62
     7
  6
Continuous
370
    -3
390
F
  0
LAYER
  5
107
330
2
100
AcDbSymbolTableRecord
100
AcDbLayerTableRecord
  2
Layer151
 70
     0
 62
     7
  6
Continuous
370
    -3
390
F
  0
LAYER
  5
108
330
2
100
AcDbSymbolTableRecord
100
AcDbLayerTableRecord
  2
Layer152
 70
     0
 62
     7
  6
Continuous
370
    -3
390
F
  0
LAYER
  5
109
330
2
100
AcDbSymbolTableRecord
100
AcDbLayerTableRecord
  2
Layer153
 70
     0
 62
     7
  6
Continuous
370
    -3
390
F
  0
LAYER
  5
10A
330
2
100
AcDbSymbolTableRecord
100
AcDbLayerTableRecord
  2
Layer154
 70
     0
 62
     7
  6
Continuous
370
    -3
390
F
  0
LAYER
  5
10B
330
2
100
AcDbSymbolTableRecord
100
AcDbLayerTableRecord
  2
Layer155
 70
     0
 62
     7
  6
Continuous
370
    -3
390
F
  0
LAYER
  5
10C
330
2
100
AcDbSymbolTableRecord
100
AcDbLayerTableRecord
  2
Layer156
 70
     0
 62
     7
  6
Continuous
370
    -3
390
F
  0
LAYER
  5
10D
330
2
100
AcDbSymbolTableRecord
100
AcDbLayerTableRecord
  2
Layer157
 70
     0
 62
     7
  6
Continuous
370
    -3
390
F
  0
LAYER
  5
10E
330
2
100
AcDbSymbolTableRecord
100
AcDbLayerTableRecord
  2
Layer158
 70
     0
 62
     7
  6
Continuous
370
    -3
390
F
  0
LAYER
  5
10F
330
2
100
AcDbSymbolTableRecord
100
AcDbLayerTableRecord
  2
Layer159
 70
     0
 62
     7
  6
Continuous
370
    -3
390
F
  0
LAYER
  5
110
330
2
100
AcDbSymbolTableRecord
100
AcDbLayerTableRecord
  2
Layer160
 70
     0
 62
     7
  6
Continuous
370
    -3
390
F
  0
LAYER
  5
111
330
2
100
AcDbSymbolTableRecord
100
AcDbLayerTableRecord
  2
Layer161
 70
     0
 62
     7
  6
Continuous
370
    -3
390
F
  0
LAYER
  5
112
330
2
100
AcDbSymbolTableRecord
100
AcDbLayerTableRecord
  2
Layer162
 70
     0
 62
     7
  6
Continuous
370
    -3
390
F
  0
LAYER
  5
113
330
2
100
AcDbSymbolTableRecord
100
AcDbLayerTableRecord
  2
Layer163
 70
     0
 62
     7
  6
Continuous
370
    -3
390
F
  0
LAYER
  5
114
330
2
100
AcDbSymbolTableRecord
100
AcDbLayerTableRecord
  2
Layer164
 70
     0
 62
     7
  6
Continuous
370
    -3
390
F
  0
LAYER
  5
115
330
2
100
AcDbSymbolTableRecord
100
AcDbLayerTableRecord
  2
Layer165
 70
     0
 62
     7
  6
Continuous
370
    -3
390
F
  0
LAYER
  5
116
330
2
100
AcDbSymbolTableRecord
100
AcDbLayerTableRecord
  2
Layer166
 70
     0
 62
     7
  6
Continuous
370
    -3
390
F
  0
LAYER
  5
117
330
2
100
AcDbSymbolTableRecord
100
AcDbLayerTableRecord
  2
Layer167
 70
     0
 62
     7
  6
Continuous
370
    -3
390
F
  0
LAYER
  5
118
330
2
100
AcDbSymbolTableRecord
100
AcDbLayerTableRecord
  2
Layer168
 70
     0
 62
     7
  6
Continuous
370
    -3
390
F
  0
LAYER
  5
119
330
2
100
AcDbSymbolTableRecord
100
AcDbLayerTableRecord
  2
Layer169
 70
     0
 62
     7
  6
Continuous
370
    -3
390
F
  0
LAYER
  5
11A
330
2
100
AcDbSymbolTableRecord
100
AcDbLayerTableRecord
  2
Layer170
 70
     0
 62
     7
  6
Continuous
370
    -3
390
F
  0
LAYER
  5
11B
330
2
100
AcDbSymbolTableRecord
100
AcDbLayerTableRecord
  2
Layer171
 70
     0
 62
     7
  6
Continuous
370
    -3
390
F
  0
LAYER
  5
11C
330
2
100
AcDbSymbolTableRecord
100
AcDbLayerTableRecord
  2
Layer172
 70
     0
 62
     7
  6
Continuous
370
    -3
390
F
  0
LAYER
  5
11D
330
2
100
AcDbSymbolTableRecord
100
AcDbLayerTableRecord
  2
Layer173
 70
     0
 62
     7
  6
Continuous
370
    -3
390
F
  0
LAYER
  5
11E
330
2
100
AcDbSymbolTableRecord
100
AcDbLayerTableRecord
  2
Layer174
 70
     0
 62
     7
  6
Continuous
370
    -3
390
F
  0
LAYER
  5
11F
330
2
100
AcDbSymbolTableRecord
100
AcDbLayerTableRecord
  2
Layer175
 70
     0
 62
     7
  6
Continuous
370
    -3
390
F
  0
LAYER
  5
120
330
2
100
AcDbSymbolTableRecord
100
AcDbLayerTableRecord
  2
Layer176
 70
     0
 62
     7
  6
Continuous
370
    -3
390
F
  0
LAYER
  5
121
330
2
100
AcDbSymbolTableRecord
100
AcDbLayerTableRecord
  2
Layer177
 70
     0
 62
     7
  6
Continuous
370
    -3
390
F
  0
LAYER
  5
122
330
2
100
AcDbSymbolTableRecord
100
AcDbLayerTableRecord
  2
Layer178
 70
     0
 62
     7
  6
Continuous
370
    -3
390
F
  0
LAYER
  5
123
330
2
100
AcDbSymbolTableRecord
100
AcDbLayerTableRecord
  2
Layer179
 70
     0
 62
     7
  6
Continuous
370
    -3
390
F
  0
LAYER
  5
124
330
2
100
AcDbSymbolTableRecord
100
AcDbLayerTableRecord
  2
Layer180
 70
     0
 62
     7
  6
Continuous
370
    -3
390
F
  0
LAYER
  5
125
330
2
100
AcDbSymbolTableRecord
100
AcDbLayerTableRecord
  2
Layer181
 70
     0
 62
     7
  6
Continuous
370
    -3
390
F
  0
LAYER
  5
126
330
2
100
AcDbSymbolTableRecord
100
AcDbLayerTableRecord
  2
Layer182
 70
     0
 62
     7
  6
Continuous
370
    -3
390
F
  0
LAYER
  5
127
330
2
100
AcDbSymbolTableRecord
100
AcDbLayerTableRecord
  2
Layer183
 70
     0
 62
     7
  6
Continuous
370
    -3
390
F
  0
LAYER
  5
128
330
2
100
AcDbSymbolTableRecord
100
AcDbLayerTableRecord
  2
Layer184
 70
     0
 62
     7
  6
Continuous
370
    -3
390
F
  0
LAYER
  5
129
330
2
100
AcDbSymbolTableRecord
100
AcDbLayerTableRecord
  2
Layer185
 70
     0
 62
     7
  6
Continuous
370
    -3
390
F
  0
LAYER
  5
12A
330
2
100
AcDbSymbolTableRecord
100
AcDbLayerTableRecord
  2
Layer186
 70
     0
 62
     7
  6
Continuous
370
    -3
390
F
  0
LAYER
  5
12B
330
2
100
AcDbSymbolTableRecord
100
AcDbLayerTableRecord
  2
Layer187
 70
     0
 62
     7
  6
Continuous
370
    -3
390
F
  0
LAYER
  5
12C
330
2
100
AcDbSymbolTableRecord
100
AcDbLayerTableRecord
  2
Layer188
 70
     0
 62
     7
  6
Continuous
370
    -3
390
F
  0
LAYER
  5
12D
330
2
100
AcDbSymbolTableRecord
100
AcDbLayerTableRecord
  2
Layer189
 70
     0
 62
     7
  6
Continuous
370
    -3
390
F
  0
LAYER
  5
12E
330
2
100
AcDbSymbolTableRecord
100
AcDbLayerTableRecord
  2
Layer190
 70
     0
 62
     7
  6
Continuous
370
    -3
390
F
  0
LAYER
  5
12F
330
2
100
AcDbSymbolTableRecord
100
AcDbLayerTableRecord
  2
Layer191
 70
     0
 62
     7
  6
Continuous
370
    -3
390
F
  0
LAYER
  5
130
330
2
100
AcDbSymbolTableRecord
100
AcDbLayerTableRecord
  2
Layer192
 70
     0
 62
     7
  6
Continuous
370
    -3
390
F
  0
LAYER
  5
131
330
2
100
AcDbSymbolTableRecord
100
AcDbLayerTableRecord
  2
Layer193
 70
     0
 62
     7
  6
Continuous
370
    -3
390
F
  0
LAYER
  5
132
330
2
100
AcDbSymbolTableRecord
100
AcDbLayerTableRecord
  2
Layer194
 70
     0
 62
     7
  6
Continuous
370
    -3
390
F
  0
LAYER
  5
133
330
2
100
AcDbSymbolTableRecord
100
AcDbLayerTableRecord
  2
Layer195
 70
     0
 62
     7
  6
Continuous
370
    -3
390
F
  0
LAYER
  5
134
330
2
100
AcDbSymbolTableRecord
100
AcDbLayerTableRecord
  2
Layer196
 70
     0
 62
     7
  6
Continuous
370
    -3
390
F
  0
LAYER
  5
135
330
2
100
AcDbSymbolTableRecord
100
AcDbLayerTableRecord
  2
Layer197
 70
     0
 62
     7
  6
Continuous
370
    -3
390
F
  0
LAYER
  5
136
330
2
100
AcDbSymbolTableRecord
100
AcDbLayerTableRecord
  2
Layer198
 70
     0
 62
     7
  6
Continuous
370
    -3
390
F
  0
LAYER
  5
137
330
2
100
AcDbSymbolTableRecord
100
AcDbLayerTableRecord
  2
Layer199
 70
     0
 62
     7
  6
Continuous
370
    -3
390
F
  0
LAYER
  5
138
330
2
100
AcDbSymbolTableRecord
100
AcDbLayerTableRecord
  2
Layer200
 70
     0
 62
     7
  6
Continuous
370
    -3
390
F
  0
LAYER
  5
139
330
2
100
AcDbSymbolTableRecord
100
AcDbLayerTableRecord
  2
Layer201
 70
     0
 62
     7
  6
Continuous
370
    -3
390
F
  0
LAYER
  5
13A
330
2
100
AcDbSymbolTableRecord
100
AcDbLayerTableRecord
  2
Layer202
 70
     0
 62
     7
  6
Continuous
370
    -3
390
F
  0
LAYER
  5
13B
330
2
100
AcDbSymbolTableRecord
100
AcDbLayerTableRecord
  2
Layer203
 70
     0
 62
     7
  6
Continuous
370
    -3
390
F
  0
LAYER
  5
13C
330
2
100
AcDbSymbolTableRecord
100
AcDbLayerTableRecord
  2
Layer204
 70
     0
 62
     7
  6
Continuous
370
    -3
390
F
  0
LAYER
  5
13D
330
2
100
AcDbSymbolTableRecord
100
AcDbLayerTableRecord
  2
Layer205
 70
     0
 62
     7
  6
Continuous
370
    -3
390
F
  0
LAYER
  5
13E
330
2
100
AcDbSymbolTableRecord
100
AcDbLayerTableRecord
  2
Layer206
 70
     0
 62
     7
  6
Continuous
370
    -3
390
F
  0
LAYER
  5
13F
330
2
100
AcDbSymbolTableRecord
100
AcDbLayerTableRecord
  2
Layer207
 70
     0
 62
     7
  6
Continuous
370
    -3
390
F
  0
LAYER
  5
140
330
2
100
AcDbSymbolTableRecord
100
AcDbLayerTableRecord
  2
Layer208
 70
     0
 62
     7
  6
Continuous
370
    -3
390
F
  0
LAYER
  5
141
330
2
100
AcDbSymbolTableRecord
100
AcDbLayerTableRecord
  2
Layer209
 70
     0
 62
     7
  6
Continuous
370
    -3
390
F
  0
LAYER
  5
142
330
2
100
AcDbSymbolTableRecord
100
AcDbLayerTableRecord
  2
Layer210
 70
     0
 62
     7
  6
Continuous
370
    -3
390
F
  0
LAYER
  5
143
330
2
100
AcDbSymbolTableRecord
100
AcDbLayerTableRecord
  2
Layer211
 70
     0
 62
     7
  6
Continuous
370
    -3
390
F
  0
LAYER
  5
144
330
2
100
AcDbSymbolTableRecord
100
AcDbLayerTableRecord
  2
Layer212
 70
     0
 62
     7
  6
Continuous
370
    -3
390
F
  0
LAYER
  5
145
330
2
100
AcDbSymbolTableRecord
100
AcDbLayerTableRecord
  2
Layer213
 70
     0
 62
     7
  6
Continuous
370
    -3
390
F
  0
LAYER
  5
146
330
2
100
AcDbSymbolTableRecord
100
AcDbLayerTableRecord
  2
Layer214
 70
     0
 62
     7
  6
Continuous
370
    -3
390
F
  0
LAYER
  5
147
330
2
100
AcDbSymbolTableRecord
100
AcDbLayerTableRecord
  2
Layer215
 70
     0
 62
     7
  6
Continuous
370
    -3
390
F
  0
LAYER
  5
148
330
2
100
AcDbSymbolTableRecord
100
AcDbLayerTableRecord
  2
Layer216
 70
     0
 62
     7
  6
Continuous
370
    -3
390
F
  0
LAYER
  5
149
330
2
100
AcDbSymbolTableRecord
100
AcDbLayerTableRecord
  2
Layer217
 70
     0
 62
     7
  6
Continuous
370
    -3
390
F
  0
LAYER
  5
14A
330
2
100
AcDbSymbolTableRecord
100
AcDbLayerTableRecord
  2
Layer218
 70
     0
 62
     7
  6
Continuous
370
    -3
390
F
  0
LAYER
  5
14B
330
2
100
AcDbSymbolTableRecord
100
AcDbLayerTableRecord
  2
Layer219
 70
     0
 62
     7
  6
Continuous
370
    -3
390
F
  0
LAYER
  5
14C
330
2
100
AcDbSymbolTableRecord
100
AcDbLayerTableRecord
  2
Layer220
 70
     0
 62
     7
  6
Continuous
370
    -3
390
F
  0
LAYER
  5
14D
330
2
100
AcDbSymbolTableRecord
100
AcDbLayerTableRecord
  2
Layer221
 70
     0
 62
     7
  6
Continuous
370
    -3
390
F
  0
LAYER
  5
14E
330
2
100
AcDbSymbolTableRecord
100
AcDbLayerTableRecord
  2
Layer222
 70
     0
 62
     7
  6
Continuous
370
    -3
390
F
  0
LAYER
  5
14F
330
2
100
AcDbSymbolTableRecord
100
AcDbLayerTableRecord
  2
Layer223
 70
     0
 62
     7
  6
Continuous
370
    -3
390
F
  0
LAYER
  5
150
330
2
100
AcDbSymbolTableRecord
100
AcDbLayerTableRecord
  2
Layer224
 70
     0
 62
     7
  6
Continuous
370
    -3
390
F
  0
LAYER
  5
151
330
2
100
AcDbSymbolTableRecord
100
AcDbLayerTableRecord
  2
Layer225
 70
     0
 62
     7
  6
Continuous
370
    -3
390
F
  0
LAYER
  5
152
330
2
100
AcDbSymbolTableRecord
100
AcDbLayerTableRecord
  2
Layer226
 70
     0
 62
     7
  6
Continuous
370
    -3
390
F
  0
LAYER
  5
153
330
2
100
AcDbSymbolTableRecord
100
AcDbLayerTableRecord
  2
Layer227
 70
     0
 62
     7
  6
Continuous
370
    -3
390
F
  0
LAYER
  5
154
330
2
100
AcDbSymbolTableRecord
100
AcDbLayerTableRecord
  2
Layer228
 70
     0
 62
     7
  6
Continuous
370
    -3
390
F
  0
LAYER
  5
155
330
2
100
AcDbSymbolTableRecord
100
AcDbLayerTableRecord
  2
Layer229
 70
     0
 62
     7
  6
Continuous
370
    -3
390
F
  0
LAYER
  5
156
330
2
100
AcDbSymbolTableRecord
100
AcDbLayerTableRecord
  2
Layer230
 70
     0
 62
     7
  6
Continuous
370
    -3
390
F
  0
LAYER
  5
157
330
2
100
AcDbSymbolTableRecord
100
AcDbLayerTableRecord
  2
Layer231
 70
     0
 62
     7
  6
Continuous
370
    -3
390
F
  0
LAYER
  5
158
330
2
100
AcDbSymbolTableRecord
100
AcDbLayerTableRecord
  2
Layer232
 70
     0
 62
     7
  6
Continuous
370
    -3
390
F
  0
LAYER
  5
159
330
2
100
AcDbSymbolTableRecord
100
AcDbLayerTableRecord
  2
Layer233
 70
     0
 62
     7
  6
Continuous
370
    -3
390
F
  0
LAYER
  5
15A
330
2
100
AcDbSymbolTableRecord
100
AcDbLayerTableRecord
  2
Layer234
 70
     0
 62
     7
  6
Continuous
370
    -3
390
F
  0
LAYER
  5
15B
330
2
100
AcDbSymbolTableRecord
100
AcDbLayerTableRecord
  2
Layer235
 70
     0
 62
     7
  6
Continuous
370
    -3
390
F
  0
LAYER
  5
15C
330
2
100
AcDbSymbolTableRecord
100
AcDbLayerTableRecord
  2
Layer236
 70
     0
 62
     7
  6
Continuous
370
    -3
390
F
  0
LAYER
  5
15D
330
2
100
AcDbSymbolTableRecord
100
AcDbLayerTableRecord
  2
Layer237
 70
     0
 62
     7
  6
Continuous
370
    -3
390
F
  0
LAYER
  5
15E
330
2
100
AcDbSymbolTableRecord
100
AcDbLayerTableRecord
  2
Layer238
 70
     0
 62
     7
  6
Continuous
370
    -3
390
F
  0
LAYER
  5
15F
330
2
100
AcDbSymbolTableRecord
100
AcDbLayerTableRecord
  2
Layer239
 70
     0
 62
     7
  6
Continuous
370
    -3
390
F
  0
LAYER
  5
160
330
2
100
AcDbSymbolTableRecord
100
AcDbLayerTableRecord
  2
Layer240
 70
     0
 62
     7
  6
Continuous
370
    -3
390
F
  0
LAYER
  5
161
330
2
100
AcDbSymbolTableRecord
100
AcDbLayerTableRecord
  2
Layer241
 70
     0
 62
     7
  6
Continuous
370
    -3
390
F
  0
LAYER
  5
162
330
2
100
AcDbSymbolTableRecord
100
AcDbLayerTableRecord
  2
Layer242
 70
     0
 62
     7
  6
Continuous
370
    -3
390
F
  0
LAYER
  5
163
330
2
100
AcDbSymbolTableRecord
100
AcDbLayerTableRecord
  2
Layer243
 70
     0
 62
     7
  6
Continuous
370
    -3
390
F
  0
LAYER
  5
164
330
2
100
AcDbSymbolTableRecord
100
AcDbLayerTableRecord
  2
Layer244
 70
     0
 62
     7
  6
Continuous
370
    -3
390
F
  0
LAYER
  5
165
330
2
100
AcDbSymbolTableRecord
100
AcDbLayerTableRecord
  2
Layer245
 70
     0
 62
     7
  6
Continuous
370
    -3
390
F
  0
LAYER
  5
166
330
2
100
AcDbSymbolTableRecord
100
AcDbLayerTableRecord
  2
Layer246
 70
     0
 62
     7
  6
Continuous
370
    -3
390
F
  0
LAYER
  5
167
330
2
100
AcDbSymbolTableRecord
100
AcDbLayerTableRecord
  2
Layer247
 70
     0
 62
     7
  6
Continuous
370
    -3
390
F
  0
LAYER
  5
168
330
2
100
AcDbSymbolTableRecord
100
AcDbLayerTableRecord
  2
Layer248
 70
     0
 62
     7
  6
Continuous
370
    -3
390
F
  0
LAYER
  5
169
330
2
100
AcDbSymbolTableRecord
100
AcDbLayerTableRecord
  2
Layer249
 70
     0
 62
     7
  6
Continuous
370
    -3
390
F
  0
LAYER
  5
16A
330
2
100
AcDbSymbolTableRecord
100
AcDbLayerTableRecord
  2
Layer250
 70
     0
 62
     7
  6
Continuous
370
    -3
390
F
  0
LAYER
  5
16B
330
2
100
AcDbSymbolTableRecord
100
AcDbLayerTableRecord
  2
Layer251
 70
     0
 62
     7
  6
Continuous
370
    -3
390
F
  0
LAYER
  5
16C
330
2
100
AcDbSymbolTableRecord
100
AcDbLayerTableRecord
  2
Layer252
 70
     0
 62
     7
  6
Continuous
370
    -3
390
F
  0
LAYER
  5
16D
330
2
100
AcDbSymbolTableRecord
100
AcDbLayerTableRecord
  2
Layer253
 70
     0
 62
     7
  6
Continuous
370
    -3
390
F
  0
LAYER
  5
16E
330
2
100
AcDbSymbolTableRecord
100
AcDbLayerTableRecord
  2
Layer254
 70
     0
 62
     7
  6
Continuous
370
    -3
390
F
  0
LAYER
  5
16F
330
2
100
AcDbSymbolTableRecord
100
AcDbLayerTableRecord
  2
Layer255
 70
     0
 62
     7
  6
Continuous
370
    -3
390
F
  0
ENDTAB
  0
TABLE
  2
STYLE
  5
3
330
0
100
AcDbSymbolTable
 70
     5
  0
STYLE
  5
11
330
3
100
AcDbSymbolTableRecord
100
AcDbTextStyleTableRecord
  2
Standard
 70
     0
 40
0.0
 41
1.0
 50
0.0
 71
     0
 42
2.5
  3
txt
  4

  0
STYLE
  5
6C
330
3
100
AcDbSymbolTableRecord
100
AcDbTextStyleTableRecord
  2
Arial
 70
     0
 40
0.0
 41
1.0
 50
0.0
 71
     0
 42
2.5
  3
arial.ttf
  4

1001
ACAD
1000
Arial
1071
       34
  0
STYLE
  5
6D
330
3
100
AcDbSymbolTableRecord
100
AcDbTextStyleTableRecord
  2
Lucida Calligraphy
 70
     0
 40
0.0
 41
1.0
 50
0.0
 71
     0
 42
2.5
  3
arial.ttf
  4

1001
ACAD
1000
Arial
1071
       66
  0
STYLE
  5
6E
330
3
100
AcDbSymbolTableRecord
100
AcDbTextStyleTableRecord
  2
Brush Script MT
 70
     0
 40
0.0
 41
1.0
 50
0.0
 71
     0
 42
2.5
  3

  4

1001
ACAD
1000
Arial
1071
       66
  0
STYLE
  5
6F
330
3
100
AcDbSymbolTableRecord
100
AcDbTextStyleTableRecord
  2
Toleranzfont
 70
     0
 40
0.0
 41
1.0
 50
0.0
 71
     0
 42
2.5
  3
IGES1003.SHX
  4

  0
ENDTAB
  0
TABLE
  2
VIEW
  5
6
330
0
100
AcDbSymbolTable
 70
     0
  0
ENDTAB
  0
TABLE
  2
UCS
  5
7
330
0
100
AcDbSymbolTable
 70
     0
  0
ENDTAB
  0
TABLE
  2
APPID
  5
9
330
0
100
AcDbSymbolTable
 70
     1
  0
APPID
  5
12
330
9
100
AcDbSymbolTableRecord
100
AcDbRegAppTableRecord
  2
ACAD
 70
     0
  0
ENDTAB
  0
TABLE
  2
DIMSTYLE
  5
A
330
0
100
AcDbSymbolTable
 70
     1
100
AcDbDimStyleTable
  0
DIMSTYLE
105
27
330
A
100
AcDbSymbolTableRecord
100
AcDbDimStyleTableRecord
  2
ISO-25
 70
     0
 41
2.5
 42
0.625
 43
3.75
 44
1.25
 73
     0
 74
     0
 77
     1
 78
     8
140
2.5
141
2.5
143
0.03937007874
147
0.625
171
     3
172
     1
178
     0
271
     2
272
     2
274
     3
278
    44
283
     0
284
     8
340
11
  0
ENDTAB
  0
TABLE
  2
BLOCK_RECORD
  5
1
330
0
100
AcDbSymbolTable
 70
    12
  0
BLOCK_RECORD
  5
1F
330
1
100
AcDbSymbolTableRecord
100
AcDbBlockTableRecord
  2
*Model_Space
340
22
  0
BLOCK_RECORD
  5
1B
330
1
100
AcDbSymbolTableRecord
100
AcDbBlockTableRecord
  2
*Paper_Space
340
1E
  0
BLOCK_RECORD
  5
23
330
1
100
AcDbSymbolTableRecord
100
AcDbBlockTableRecord
  2
*Paper_Space0
340
26
  0
BLOCK_RECORD
  5
170
330
1
100
AcDbSymbolTableRecord
100
AcDbBlockTableRecord
  2
Inch
340
0
102
{BLKREFS
331
2EA
102
}
  0
BLOCK_RECORD
  5
1B9
330
1
100
AcDbSymbolTableRecord
100
AcDbBlockTableRecord
  2
DimBlk_nNn01
340
0
102
{BLKREFS
331
1C3
102
}
  0
BLOCK_RECORD
  5
1C6
330
1
100
AcDbSymbolTableRecord
100
AcDbBlockTableRecord
  2
DimBlk_nNn02
340
0
102
{BLKREFS
331
1D0
102
}
  0
BLOCK_RECORD
  5
1D1
330
1
100
AcDbSymbolTableRecord
100
AcDbBlockTableRecord
  2
DimBlk_nNn03
340
0
102
{BLKREFS
331
1D8
102
}
  0
BLOCK_RECORD
  5
1D9
330
1
100
AcDbSymbolTableRecord
100
AcDbBlockTableRecord
  2
DimBlk_nNn04
340
0
102
{BLKREFS
331
1E1
102
}
  0
BLOCK_RECORD
  5
1E2
330
1
100
AcDbSymbolTableRecord
100
AcDbBlockTableRecord
  2
DimBlk_nNn05
340
0
102
{BLKREFS
331
1EA
102
}
  0
BLOCK_RECORD
  5
1EB
330
1
100
AcDbSymbolTableRecord
100
AcDbBlockTableRecord
  2
DimBlk_nNn06
340
0
102
{BLKREFS
331
1F3
102
}
  0
BLOCK_RECORD
  5
1F4
330
1
100
AcDbSymbolTableRecord
100
AcDbBlockTableRecord
  2
DimBlk_nNn07
340
0
102
{BLKREFS
331
1FC
102
}
  0
BLOCK_RECORD
  5
205
330
1
100
AcDbSymbolTableRecord
100
AcDbBlockTableRecord
  2
DimBlk_nNn08
340
0
102
{BLKREFS
331
20E
102
}
  0
BLOCK_RECORD
  5
211
330
1
100
AcDbSymbolTableRecord
100
AcDbBlockTableRecord
  2
DimBlk_nNn09
340
0
102
{BLKREFS
331
21B
102
}
  0
BLOCK_RECORD
  5
291
330
1
100
AcDbSymbolTableRecord
100
AcDbBlockTableRecord
  2
*X11
340
0
102
{BLKREFS
331
2E9
102
}
  0
ENDTAB
  0
ENDSEC
  0
SECTION
  2
BLOCKS
  0
BLOCK
  5
20
330
1F
100
AcDbEntity
  8
0
100
AcDbBlockBegin
  2
*Model_Space
 70
     0
 10
0.0
 20
0.0
 30
0.0
  3
*Model_Space
  1
*Model_Space
  0
ENDBLK
  5
21
330
1F
100
AcDbEntity
  8
0
100
AcDbBlockEnd
  0
BLOCK
  5
1C
330
1B
100
AcDbEntity
 67
     1
  8
0
100
AcDbBlockBegin
  2
*Paper_Space
 70
     0
 10
0.0
 20
0.0
 30
0.0
  3
*Paper_Space
  1
*Paper_Space
  0
ENDBLK
  5
1D
330
1B
100
AcDbEntity
 67
     1
  8
0
100
AcDbBlockEnd
  0
BLOCK
  5
24
330
23
100
AcDbEntity
  8
0
100
AcDbBlockBegin
  2
*Paper_Space0
 70
     0
 10
0.0
 20
0.0
 30
0.0
  3
*Paper_Space0
  1
*Paper_Space0
  0
ENDBLK
  5
25
330
23
100
AcDbEntity
  8
0
100
AcDbBlockEnd
  0
BLOCK
  5
171
330
170
100
AcDbEntity
  8
0
100
AcDbBlockBegin
  2
Inch
 70
     0
 10
0.0
 20
0.0
 30
0.0
  3
Inch
  1
Inch
  0
LINE
  5
173
330
170
100
AcDbEntity
  8
Layer2
  6
AUSGEZOGEN
 62
    16
420
  8388608
370
    18
100
AcDbLine
 10
546.713875680855
 20
207.863769115422
 30
0.0
 11
534.801275680855
 21
207.863769115422
 31
0.0
  0
LINE
  5
174
330
170
100
AcDbEntity
  8
Layer2
  6
AUSGEZOGEN
 62
    16
420
  8388608
370
    18
100
AcDbLine
 10
555.845186979796
 20
199.926269115422
 30
0.0
 11
551.587249123991
 21
199.926269115422
 31
0.0
  0
ARC
  5
175
330
170
100
AcDbEntity
  8
Layer2
  6
AUSGEZOGEN
 62
    16
420
  8388608
370
    18
100
AcDbCircle
 10
551.476375680855
 20
207.863769115422
 30
0.0
 40
4.762499999999989
100
AcDbArc
 50
180.0
 51
270.0
  0
LINE
  5
176
330
170
100
AcDbEntity
  8
Layer2
  6
AUSGEZOGEN
 62
    16
420
  8388608
370
    18
100
AcDbLine
 10
551.476375680855
 20
203.101269115422
 30
0.0
 11
551.587249123991
 21
199.926269115422
 31
0.0
  0
ARC
  5
177
330
170
100
AcDbEntity
  8
Layer2
  6
AUSGEZOGEN
 62
    16
420
  8388608
370
    18
100
AcDbCircle
 10
562.982575680855
 20
199.938969115422
 30
0.0
 40
7.137400000000014
100
AcDbArc
 50
48.59652906173
 51
180.101949839408
  0
ARC
  5
178
330
170
100
AcDbEntity
  8
Layer2
  6
AUSGEZOGEN
 62
    16
420
  8388608
370
    18
100
AcDbCircle
 10
579.080743338749
 20
214.308620954626
 30
0.0
 40
14.28750000000002
100
AcDbArc
 50
228.59652906173
 51
269.078340165792
  0
LINE
  5
179
330
170
100
AcDbEntity
  8
Layer2
  6
AUSGEZOGEN
 62
    16
420
  8388608
370
    18
100
AcDbLine
 10
569.63160083907
 20
203.591981450063
 30
0.0
 11
567.702947311806
 21
205.292525916812
 31
0.0
  0
ARC
  5
17A
330
170
100
AcDbEntity
  8
Layer2
  6
AUSGEZOGEN
 62
    16
420
  8388608
370
    18
100
AcDbCircle
 10
581.230010432022
 20
199.921471150214
 30
0.0
 40
2.381250000000023
100
AcDbArc
 50
6.0
 51
177.557087565693
  0
ARC
  5
17B
330
170
100
AcDbEntity
  8
Layer2
  6
AUSGEZOGEN
 62
    16
420
  8388608
370
    18
100
AcDbCircle
 10
591.557575680855
 20
199.926269115422
 30
0.0
 40
4.762499999999989
100
AcDbArc
 50
194.201533541492
 51
265.237272295209
  0
ARC
  5
17C
330
170
100
AcDbEntity
  8
Layer2
  6
AUSGEZOGEN
 62
    16
420
  8388608
370
    18
100
AcDbCircle
 10
534.801275680855
 20
207.076369115422
 30
0.0
 40
0.7873999999999909
100
AcDbArc
 50
90.0
 51
173.999999999953
  0
LINE
  5
17D
330
170
100
AcDbEntity
  8
Layer2
  6
AUSGEZOGEN
 62
    16
420
  8388608
370
    18
100
AcDbLine
 10
586.940623472958
 20
198.757869115422
 30
0.0
 11
583.746676524753
 21
198.757869115422
 31
0.0
  0
LINE
  5
17E
330
170
100
AcDbEntity
  8
Layer2
  6
AUSGEZOGEN
 62
    16
420
  8388608
370
    18
100
AcDbLine
 10
583.598215695368
 20
200.17037955337
 30
0.0
 11
583.746676524753
 21
198.757869115422
 31
0.0
  0
LINE
  5
17F
330
170
100
AcDbEntity
  8
Layer2
  6
AUSGEZOGEN
 62
    16
420
  8388608
370
    18
100
AcDbLine
 10
534.018189140442
 20
207.158674827399
 30
0.0
 11
534.018189140442
 21
188.858889610703
 31
0.0
  0
LINE
  5
180
330
170
100
AcDbEntity
  8
Layer2
  6
AUSGEZOGEN
 62
    16
420
  8388608
370
    18
100
AcDbLine
 10
546.724758186468
 20
188.858889610703
 30
0.0
 11
534.018189140442
 21
188.858889610703
 31
0.0
  0
LINE
  5
181
330
170
100
AcDbEntity
  8
Layer2
  6
AUSGEZOGEN
 62
    16
420
  8388608
370
    18
100
AcDbLine
 10
591.162147292381
 20
188.858889610703
 30
0.0
 11
578.462147292381
 21
188.858889610703
 31
0.0
  0
LINE
  5
182
330
170
100
AcDbEntity
  8
Layer2
  6
AUSGEZOGEN
 62
    16
420
  8388608
370
    18
100
AcDbLine
 10
591.162147292381
 20
195.180213633278
 30
0.0
 11
591.162147292381
 21
188.858889610703
 31
0.0
  0
LINE
  5
183
330
170
100
AcDbEntity
  8
Layer2
  6
AUSGEZOGEN
 62
    16
420
  8388608
370
    18
100
AcDbLine
 10
576.887347292381
 20
190.433689610703
 30
0.0
 11
548.299558186468
 21
190.433689610703
 31
0.0
  0
LINE
  5
184
330
170
100
AcDbEntity
  8
Layer2
  6
AUSGEZOGEN
 62
    16
420
  8388608
370
    18
100
AcDbLine
 10
548.299558186468
 20
190.433689610703
 30
0.0
 11
546.724758186468
 21
188.858889610703
 31
0.0
  0
LINE
  5
185
330
170
100
AcDbEntity
  8
Layer2
  6
AUSGEZOGEN
 62
    16
420
  8388608
370
    18
100
AcDbLine
 10
576.887347292381
 20
190.433689610703
 30
0.0
 11
578.462147292381
 21
188.858889610703
 31
0.0
  0
LINE
  5
186
330
170
100
AcDbEntity
  8
Layer2
  6
AUSGEZOGEN
 62
    16
420
  8388608
370
    18
100
AcDbLine
 10
553.78494349272
 20
214.934836927287
 30
0.0
 11
541.87234349272
 21
214.934836927287
 31
0.0
  0
LINE
  5
187
330
170
100
AcDbEntity
  8
Layer2
  6
AUSGEZOGEN
 62
    16
420
  8388608
370
    18
100
AcDbLine
 10
559.947135612638
 20
206.997336927287
 30
0.0
 11
558.658316935857
 21
206.997336927287
 31
0.0
  0
ARC
  5
188
330
170
100
AcDbEntity
  8
Layer2
  6
AUSGEZOGEN
 62
    16
420
  8388608
370
    18
100
AcDbCircle
 10
558.54744349272
 20
214.934836927287
 30
0.0
 40
4.762499999999989
100
AcDbArc
 50
180.0
 51
270.0
  0
LINE
  5
189
330
170
100
AcDbEntity
  8
Layer2
  6
AUSGEZOGEN
 62
    16
420
  8388608
370
    18
100
AcDbLine
 10
558.54744349272
 20
210.172336927287
 30
0.0
 11
558.658316935857
 21
206.997336927287
 31
0.0
  0
ARC
  5
18A
330
170
100
AcDbEntity
  8
Layer2
  6
AUSGEZOGEN
 62
    16
420
  8388608
370
    18
100
AcDbCircle
 10
570.05364349272
 20
207.010036927287
 30
0.0
 40
7.137400000000014
100
AcDbArc
 50
48.59652906173
 51
135.0
  0
ARC
  5
18B
330
170
100
AcDbEntity
  8
Layer2
  6
AUSGEZOGEN
 62
    16
420
  8388608
370
    18
100
AcDbCircle
 10
586.151811150615
 20
221.379688766492
 30
0.0
 40
14.28750000000002
100
AcDbArc
 50
228.59652906173
 51
265.673063453525
  0
LINE
  5
18C
330
170
100
AcDbEntity
  8
Layer2
  6
AUSGEZOGEN
 62
    16
420
  8388608
370
    18
100
AcDbLine
 10
576.702668650935
 20
210.663049261929
 30
0.0
 11
574.774015123671
 21
212.363593728678
 31
0.0
  0
ARC
  5
18D
330
170
100
AcDbEntity
  8
Layer2
  6
AUSGEZOGEN
 62
    16
420
  8388608
370
    18
100
AcDbCircle
 10
588.301078243888
 20
206.992538962079
 30
0.0
 40
2.381250000000023
100
AcDbArc
 50
6.0
 51
135.0
  0
ARC
  5
18E
330
170
100
AcDbEntity
  8
Layer2
  6
AUSGEZOGEN
 62
    16
420
  8388608
370
    18
100
AcDbCircle
 10
598.62864349272
 20
206.997336927287
 30
0.0
 40
4.762499999999989
100
AcDbArc
 50
194.201533541492
 51
265.237272295209
  0
ARC
  5
18F
330
170
100
AcDbEntity
  8
Layer2
  6
AUSGEZOGEN
 62
    16
420
  8388608
370
    18
100
AcDbCircle
 10
541.87234349272
 20
214.147436927287
 30
0.0
 40
0.7873999999999909
100
AcDbArc
 50
90.0
 51
134.999999999999
  0
LINE
  5
190
330
170
100
AcDbEntity
  8
Layer2
  6
AUSGEZOGEN
 62
    16
420
  8388608
370
    18
100
AcDbLine
 10
594.011691284824
 20
205.828936927287
 30
0.0
 11
590.817744336619
 21
205.828936927287
 31
0.0
  0
LINE
  5
191
330
170
100
AcDbEntity
  8
Layer2
  6
AUSGEZOGEN
 62
    16
420
  8388608
370
    18
100
AcDbLine
 10
590.669283507234
 20
207.241447365236
 30
0.0
 11
590.817744336619
 21
205.828936927287
 31
0.0
  0
LINE
  5
192
330
170
100
AcDbEntity
  8
Layer2
  6
AUSGEZOGEN
 62
    16
420
  8388608
370
    18
100
AcDbLine
 10
598.233215104247
 20
202.251281445143
 30
0.0
 11
598.233215104247
 21
195.929957422569
 31
0.0
  0
LINE
  5
193
330
170
100
AcDbEntity
  8
Layer2
  6
AUSGEZOGEN
 62
    16
420
  8388608
370
    18
100
AcDbLine
 10
598.233215104247
 20
195.929957422569
 30
0.0
 11
591.162147292381
 21
188.858889610703
 31
0.0
  0
LINE
  5
194
330
170
100
AcDbEntity
  8
Layer2
  6
AUSGEZOGEN
 62
    16
420
  8388608
370
    18
100
AcDbLine
 10
598.233215104247
 20
202.251281445143
 30
0.0
 11
591.162147292381
 21
195.180213633278
 31
0.0
  0
LINE
  5
195
330
170
100
AcDbEntity
  8
Layer2
  6
AUSGEZOGEN
 62
    16
420
  8388608
370
    18
100
AcDbLine
 10
594.011691284824
 20
205.828936927287
 30
0.0
 11
586.940623472958
 21
198.757869115422
 31
0.0
  0
LINE
  5
196
330
170
100
AcDbEntity
  8
Layer2
  6
AUSGEZOGEN
 62
    16
420
  8388608
370
    18
100
AcDbLine
 10
590.817744336619
 20
205.828936927287
 30
0.0
 11
583.746676524753
 21
198.757869115422
 31
0.0
  0
LINE
  5
197
330
170
100
AcDbEntity
  8
Layer2
  6
AUSGEZOGEN
 62
    16
420
  8388608
370
    18
100
AcDbLine
 10
546.713875680855
 20
207.863769115422
 30
0.0
 11
553.78494349272
 21
214.934836927287
 31
0.0
  0
LINE
  5
198
330
170
100
AcDbEntity
  8
Layer2
  6
AUSGEZOGEN
 62
    16
420
  8388608
370
    18
100
AcDbLine
 10
558.54744349272
 20
210.172336927287
 30
0.0
 11
551.476375680855
 21
203.101269115422
 31
0.0
  0
LINE
  5
199
330
170
100
AcDbEntity
  8
Layer2
  6
AUSGEZOGEN
 62
    16
420
  8388608
370
    18
100
AcDbLine
 10
551.587249123991
 20
199.926269115422
 30
0.0
 11
558.658316935857
 21
206.997336927287
 31
0.0
  0
LINE
  5
19A
330
170
100
AcDbEntity
  8
Layer2
  6
AUSGEZOGEN
 62
    16
420
  8388608
370
    18
100
AcDbLine
 10
557.935671740814
 20
204.985873055463
 30
0.0
 11
565.006739552679
 21
212.056940867328
 31
0.0
  0
LINE
  5
19B
330
170
100
AcDbEntity
  8
Layer2
  6
AUSGEZOGEN
 62
    16
420
  8388608
370
    18
100
AcDbLine
 10
579.546212409322
 20
201.605269172914
 30
0.0
 11
586.617280221187
 21
208.67633698478
 31
0.0
  0
LINE
  5
19C
330
170
100
AcDbEntity
  8
Layer2
  6
AUSGEZOGEN
 62
    16
420
  8388608
370
    18
100
AcDbLine
 10
534.244499801349
 20
207.633144994928
 30
0.0
 11
541.315567613214
 21
214.704212806794
 31
0.0
  0
TEXT
  5
19D
330
170
100
AcDbEntity
  8
PROFILE
  6
AUSGEZOGEN
 62
    16
420
  8388608
370
    18
100
AcDbText
 10
543.418247352833
 20
183.53804268916
 30
0.0
 40
3.5
  1
3/4" X 2-1/4"
 41
1.44194375088
  7
Arial
 72
     5
 11
582.884247814411
 21
183.53804268916
 31
0.0
100
AcDbText
  0
TEXT
  5
19E
330
170
100
AcDbEntity
  8
PROFILE
  6
AUSGEZOGEN
 62
    16
420
  8388608
370
    18
100
AcDbText
 10
542.930550623657
 20
177.836829864838
 30
0.0
 40
3.5
  1
CASE 2.250"
 41
1.380579692642
  7
Arial
 72
     5
 11
582.442051137211
 21
177.836829864838
 31
0.0
100
AcDbText
  0
LINE
  5
19F
330
170
100
AcDbEntity
  8
PROFILE
  6
AUSGEZOGEN
 62
     3
420
    65280
370
    18
100
AcDbLine
 10
610.310000399803
 20
64.766123495751
 30
0.0
 11
513.160080399803
 21
64.766123495751
 31
0.0
  0
LINE
  5
1A0
330
170
100
AcDbEntity
  8
PROFILE
  6
AUSGEZOGEN
 62
     3
420
    65280
370
    18
100
AcDbLine
 10
513.160080399803
 20
64.766123495751
 30
0.0
 11
513.160080399803
 21
130.234623495751
 31
0.0
  0
LINE
  5
1A1
330
170
100
AcDbEntity
  8
PROFILE
  6
AUSGEZOGEN
 62
     3
420
    65280
370
    18
100
AcDbLine
 10
610.310000399803
 20
64.766123495751
 30
0.0
 11
610.310000399803
 21
140.648623495751
 31
0.0
  0
LINE
  5
1A2
330
170
100
AcDbEntity
  8
PROFILE
  6
AUSGEZOGEN
 62
     3
420
    65280
370
    18
100
AcDbLine
 10
545.860040399803
 20
124.773623495751
 30
0.0
 11
534.75185385939
 21
124.773623495751
 31
0.0
  0
LINE
  5
1A3
330
170
100
AcDbEntity
  8
PROFILE
  6
AUSGEZOGEN
 62
     3
420
    65280
370
    18
100
AcDbLine
 10
554.962965585295
 20
132.711123495751
 30
0.0
 11
550.788935099027
 21
132.711123495751
 31
0.0
  0
ARC
  5
1A4
330
170
100
AcDbEntity
  8
PROFILE
  6
AUSGEZOGEN
 62
     3
420
    65280
370
    18
100
AcDbCircle
 10
550.622540399803
 20
124.773623495751
 30
0.0
 40
4.762499999999999
100
AcDbArc
 50
90.0
 51
180.0
  0
ARC
  5
1A5
330
170
100
AcDbEntity
  8
PROFILE
  6
AUSGEZOGEN
 62
     3
420
    65280
370
    18
100
AcDbCircle
 10
562.128740399803
 20
132.698423495751
 30
0.0
 40
7.1374
100
AcDbArc
 50
184.999999999998
 51
311.40347093827
  0
ARC
  5
1A6
330
170
100
AcDbEntity
  8
PROFILE
  6
AUSGEZOGEN
 62
     3
420
    65280
370
    18
100
AcDbCircle
 10
578.226908057698
 20
118.328771656546
 30
0.0
 40
14.2875
100
AcDbArc
 50
90.931192487609
 51
131.40347093827
  0
LINE
  5
1A7
330
170
100
AcDbEntity
  8
PROFILE
  6
AUSGEZOGEN
 62
     3
420
    65280
370
    18
100
AcDbLine
 10
568.777765558018
 20
129.045411161109
 30
0.0
 11
566.849112030754
 21
127.34486669436
 31
0.0
  0
ARC
  5
1A8
330
170
100
AcDbEntity
  8
PROFILE
  6
AUSGEZOGEN
 62
     3
420
    65280
370
    18
100
AcDbCircle
 10
580.376175150971
 20
132.715921460959
 30
0.0
 40
2.38125
100
AcDbArc
 50
184.999999999995
 51
354.0
  0
ARC
  5
1A9
330
170
100
AcDbEntity
  8
PROFILE
  6
AUSGEZOGEN
 62
     3
420
    65280
370
    18
100
AcDbCircle
 10
590.703740399803
 20
132.711123495751
 30
0.0
 40
4.762499999999999
100
AcDbArc
 50
104.137819735476
 51
157.788786871444
  0
LINE
  5
1AA
330
170
100
AcDbEntity
  8
PROFILE
  6
AUSGEZOGEN
 62
     3
420
    65280
370
    18
100
AcDbLine
 10
585.354024623241
 20
133.879523495751
 30
0.0
 11
582.892841243702
 21
133.879523495751
 31
0.0
  0
LINE
  5
1AB
330
170
100
AcDbEntity
  8
PROFILE
  6
AUSGEZOGEN
 62
     3
420
    65280
370
    18
100
AcDbLine
 10
582.744380414317
 20
132.467013057803
 30
0.0
 11
582.892841243702
 21
133.879523495751
 31
0.0
  0
LINE
  5
1AC
330
170
100
AcDbEntity
  8
Layer2
  6
AUSGEZOGEN
 62
     7
420
 16777215
370
    18
100
AcDbLine
 10
533.16435385939
 20
126.361123495751
 30
0.0
 11
533.16435385939
 21
143.829303000469
 31
0.0
  0
LINE
  5
1AD
330
170
100
AcDbEntity
  8
Layer2
  6
AUSGEZOGEN
 62
     7
420
 16777215
370
    18
100
AcDbLine
 10
590.30831201133
 20
138.314598502763
 30
0.0
 11
590.30831201133
 21
143.829303000469
 31
0.0
  0
LINE
  5
1AE
330
170
100
AcDbEntity
  8
Layer2
  6
AUSGEZOGEN
 62
     7
420
 16777215
370
    18
100
AcDbLine
 10
574.865392912242
 20
142.203703000469
 30
0.0
 11
547.445722905416
 21
142.203703000469
 31
0.0
  0
LINE
  5
1AF
330
170
100
AcDbEntity
  8
Layer2
  6
AUSGEZOGEN
 62
     7
420
 16777215
370
    18
100
AcDbLine
 10
547.445722905416
 20
142.203703000469
 30
0.0
 11
545.820122905416
 21
143.829303000469
 31
0.0
  0
LINE
  5
1B0
330
170
100
AcDbEntity
  8
Layer2
  6
AUSGEZOGEN
 62
     7
420
 16777215
370
    18
100
AcDbLine
 10
574.865392912242
 20
142.203703000469
 30
0.0
 11
576.490992912242
 21
143.829303000469
 31
0.0
  0
TEXT
  5
1B1
330
170
100
AcDbEntity
  8
PROFILE
  6
AUSGEZOGEN
 62
     3
420
    65280
370
    18
100
AcDbText
 10
541.426733474612
 20
100.186517923542
 30
0.0
 40
3.5
  1
CASE 2.250"
 41
1.380579692642
  7
Arial
 72
     5
 11
580.938233988166
 21
100.186517923542
 31
0.0
100
AcDbText
  0
TEXT
  5
1B2
330
170
100
AcDbEntity
  8
PROFILE
  6
AUSGEZOGEN
 62
     1
420
 16711680
370
    18
100
AcDbText
 10
555.00101127715
 20
31.865050620288
 30
0.0
 40
3.5
  1
CASE 2.250"
 41
1.380579692642
  7
Arial
 72
     5
 11
594.512511790704
 21
31.865050620288
 31
0.0
100
AcDbText
  0
LINE
  5
1B3
330
170
100
AcDbEntity
  8
PROFILE
  6
AUSGEZOGEN
 62
     3
420
    65280
370
    18
100
AcDbLine
 10
550.622540399803
 20
129.536123495751
 30
0.0
 11
550.788935099027
 21
132.711123495751
 31
0.0
  0
ARC
  5
1B4
330
170
100
AcDbEntity
  8
PROFILE
  6
AUSGEZOGEN
 62
     3
420
    65280
370
    18
100
AcDbCircle
 10
589.29231201133
 20
138.314598502763
 30
0.0
 40
1.016
100
AcDbArc
 50
284.137819735475
 51
351.000000000001
  0
ARC
  5
1B5
330
170
100
AcDbEntity
  8
PROFILE
  6
AUSGEZOGEN
 62
     3
420
    65280
370
    18
100
AcDbCircle
 10
585.354024623241
 20
134.895523495751
 30
0.0
 40
1.016
100
AcDbArc
 50
270.0
 51
337.788786871444
  0
WIPEOUT
  5
1B6
330
170
100
AcDbEntity
  8
PROFILE
  6
AUSGEZOGEN
 62
     3
420
    65280
370
    18
 92
      308
310
34010000070000000C0000000E000000120000000C00000016000000000000C20C00000014000000010000006C00000007000000040000006A7633A064AE7F40BC7CC72D8BAB4C40000000000000000069EEB4CD715A8340BC7CC72D8BAB4C40000000000000000069EEB4CD715A8340894994FA57784F4000000000000000
310
006A7633A064AE7F40894994FA57784F4000000000000000000C0000000E000000030000000C0000001600000000FF00C28400000006000000050000006A7633A064AE7F40BC7CC72D8BAB4C40000000000000000069EEB4CD715A8340BC7CC72D8BAB4C40000000000000000069EEB4CD715A8340894994FA57784F400000
310
0000000000006A7633A064AE7F40894994FA57784F4000000000000000006A7633A064AE7F40BC7CC72D8BAB4C400000000000000000
100
AcDbWipeout
 90
        0
 10
506.899566842104
 20
57.340184900671
 30
0.0
 11
112.4060012936592
 21
0.0
 31
0.0
 12
0.0
 22
112.4060012936592
 32
0.0
 13
1.0
 23
1.0
340
0
 70
     7
280
     1
281
    50
282
    50
283
     0
360
0
 71
     2
 91
        5
 14
-0.5
 24
0.5
 14
0.5
 24
0.5
 14
0.5
 24
0.450180595915
 14
-0.5
 24
0.450180595915
 14
-0.5
 24
0.5
  0
TEXT
  5
1B7
330
170
100
AcDbEntity
  8
PROFILE
  6
AUSGEZOGEN
 62
     3
420
    65280
370
    18
100
AcDbText
 10
506.899566842104
 20
58.390184900671
 30
0.0
 40
3.5
  1
Cut steel size @ 3.000"l  x  2.000"w
 41
1.452227011965
  7
Arial
 72
     5
 11
619.305568135763
 21
58.390184900671
 31
0.0
100
AcDbText
  0
LINE
  5
1B8
330
170
100
AcDbEntity
  8
PROFILE
  6
AUSGEZOGEN
 62
     3
420
    65280
370
    18
100
AcDbLine
 10
590.310040399803
 20
99.262790162417
 30
0.0
 11
590.310040399803
 21
111.112790162417
 31
0.0
  0
INSERT
  5
1C3
330
170
100
AcDbEntity
  8
0
100
AcDbBlockReference
  2
DimBlk_nNn01
 10
0.0
 20
0.0
 30
0.0
  0
LINE
  5
1C4
330
170
100
AcDbEntity
  8
PROFILE
  6
AUSGEZOGEN
 62
     7
420
 16777215
370
    18
100
AcDbLine
 10
590.30831201133
 20
143.829303000469
 30
0.0
 11
576.490992912242
 21
143.829303000469
 31
0.0
  0
LINE
  5
1C5
330
170
100
AcDbEntity
  8
PROFILE
  6
AUSGEZOGEN
 62
     7
420
 16777215
370
    18
100
AcDbLine
 10
545.820122905416
 20
143.829303000469
 30
0.0
 11
533.16435385939
 21
143.829303000469
 31
0.0
  0
INSERT
  5
1D0
330
170
100
AcDbEntity
  8
0
100
AcDbBlockReference
  2
DimBlk_nNn02
 10
0.0
 20
0.0
 30
0.0
  0
INSERT
  5
1D8
330
170
100
AcDbEntity
  8
0
100
AcDbBlockReference
  2
DimBlk_nNn03
 10
0.0
 20
0.0
 30
0.0
  0
INSERT
  5
1E1
330
170
100
AcDbEntity
  8
0
100
AcDbBlockReference
  2
DimBlk_nNn04
 10
0.0
 20
0.0
 30
0.0
  0
INSERT
  5
1EA
330
170
100
AcDbEntity
  8
0
100
AcDbBlockReference
  2
DimBlk_nNn05
 10
0.0
 20
0.0
 30
0.0
  0
INSERT
  5
1F3
330
170
100
AcDbEntity
  8
0
100
AcDbBlockReference
  2
DimBlk_nNn06
 10
0.0
 20
0.0
 30
0.0
  0
INSERT
  5
1FC
330
170
100
AcDbEntity
  8
0
100
AcDbBlockReference
  2
DimBlk_nNn07
 10
0.0
 20
0.0
 30
0.0
  0
HATCH
  5
1FD
330
170
100
AcDbEntity
  8
PROFILE
  6
AUSGEZOGEN
 62
     4
420
    65535
370
    18
100
AcDbHatch
 10
0.0
 20
0.0
 30
0.0
210
0.0
220
0.0
230
1.0
  2
MegaCAD_ansi36
 70
     0
 71
     0
 91
        1
 92
        2
 72
     1
 73
     1
 93
       42
 10
555.8451869797962
 20
199.9262691154218
 42
0.0
 10
551.5872491239911
 20
199.9262691154218
 42
0.0
 10
551.476375680855
 20
203.1012691154218
 42
-0.0984914033571566
 10
549.6538458342161
 20
203.4637928418368
 42
-0.0984914033571714
 10
548.1087796354541
 20
204.4961730700209
 42
-0.0984914033571643
 10
547.07639940727
 20
206.0412392687831
 42
-0.098491403357164
 10
546.7138756808549
 20
207.8637691154218
 42
0.0
 10
534.8012756808548
 20
207.8637691154218
 42
0.0984914033571562
 10
534.4999507462105
 20
207.8038318593212
 42
0.0984914033571334
 10
534.2444998013484
 20
207.6331449949281
 42
0.0852907189781734
 10
534.0905800279581
 20
207.4153535530494
 42
0.0852907189781778
 10
534.018189140442
 20
207.1586748274004
 42
0.0
 10
534.018189140442
 20
188.8588896107032
 42
0.0
 10
546.7247581864679
 20
188.8588896107032
 42
0.0
 10
548.2995581864677
 20
190.4336896107032
 42
0.0
 10
576.8873472923815
 20
190.4336896107032
 42
0.0
 10
578.4621472923814
 20
188.8588896107032
 42
0.0
 10
591.1621472923814
 20
188.8588896107032
 42
0.0
 10
591.1621472923812
 20
195.1802136332778
 42
-0.0880102972577762
 10
589.5537977921729
 20
195.605820015753
 42
-0.0880102972577723
 10
588.1899796354539
 20
196.558673070021
 42
-0.0672931314045872
 10
587.4166375608347
 20
197.5738155587784
 42
-0.0672931314045877
 10
586.9406234729584
 20
198.7578691154218
 42
0.0
 10
583.7466765247532
 20
198.7578691154218
 42
0.0
 10
583.5982156953683
 20
200.17037955337
 42
0.0852907189784134
 10
583.3792916403806
 20
200.9466256994887
 42
0.0852907189784069
 10
582.9138084547228
 20
201.6052691729144
 42
0.0984914033571772
 10
582.1412753553418
 20
202.1214592870064
 42
0.198912367379668
 10
580.3187455087032
 20
202.1214592870064
 42
0.0984914033571539
 10
579.5462124093219
 20
201.6052691729144
 42
0.0931128674061574
 10
579.0499474651676
 20
200.8794257540697
 42
0.0931128674061645
 10
578.8509245440541
 20
200.0229694269006
 42
-0.0885479558722505
 10
573.922736491151
 20
200.9846717799207
 42
-0.0885479558722501
 10
569.6316008390697
 20
203.5919814500633
 42
0.0
 10
567.7029473118059
 20
205.2925259168122
 42
0.090574835089193
 10
565.5056692627256
 20
206.6155309205069
 42
0.0905748350891998
 10
562.9825756808548
 20
207.0763691154218
 42
0.0984914033571661
 10
560.2512109506922
 20
206.5330668907679
 42
0.0984914033571609
 10
557.9356717408139
 20
204.9858730554627
 42
0.0984914033571645
 10
556.3884779055086
 20
202.6703338455845
 42
0.0984914033571627
 10
555.8451756808547
 20
199.9389691154218
 42
0.0
 10
555.8451785055906
 20
199.9326191129087
 42
0.0
 97
        0
 75
     0
 76
     1
 52
0.0
 41
1.0
 77
     0
 78
     1
 53
45.0
 43
0.0
 44
0.0
 45
0.6629126073623884
 46
2.430679560328757
 79
     4
 49
3.125
 49
-0.625
 49
0.0
 49
-0.625
 98
        0
  0
LINE
  5
1FE
330
170
100
AcDbEntity
  8
PROFILE
  6
AUSGEZOGEN
 62
     3
420
    65280
370
    18
100
AcDbLine
 10
578.00398652614
 20
132.508381848541
 30
0.0
 11
577.994712473946
 21
132.614384750176
 31
0.0
  0
LINE
  5
1FF
330
170
100
AcDbEntity
  8
PROFILE
  6
AUSGEZOGEN
 62
     3
420
    65280
370
    18
100
AcDbLine
 10
610.310000399803
 20
140.648623495751
 30
0.0
 11
590.690649821348
 21
140.648623495751
 31
0.0
  0
LINE
  5
200
330
170
100
AcDbEntity
  8
PROFILE
  6
AUSGEZOGEN
 62
     3
420
    65280
370
    18
100
AcDbLine
 10
590.295803365374
 20
138.155661086282
 30
0.0
 11
590.690649821348
 21
140.648623495751
 31
0.0
  0
LINE
  5
201
330
170
100
AcDbEntity
  8
PROFILE
  6
AUSGEZOGEN
 62
     3
420
    65280
370
    18
100
AcDbLine
 10
555.018500361643
 20
132.076358097464
 30
0.0
 11
554.962965585295
 21
132.711123495751
 31
0.0
  0
LINE
  5
202
330
170
100
AcDbEntity
  8
PROFILE
  6
AUSGEZOGEN
 62
     3
420
    65280
370
    18
100
AcDbLine
 10
532.604367664797
 20
130.234623495751
 30
0.0
 11
513.160080399803
 21
130.234623495751
 31
0.0
  0
ARC
  5
203
330
170
100
AcDbEntity
  8
PROFILE
  6
AUSGEZOGEN
 62
     3
420
    65280
370
    18
100
AcDbCircle
 10
534.75185385939
 20
126.361123495751
 30
0.0
 40
1.587499999999999
100
AcDbArc
 50
188.0
 51
270.0
  0
LINE
  5
204
330
170
100
AcDbEntity
  8
PROFILE
  6
AUSGEZOGEN
 62
     3
420
    65280
370
    18
100
AcDbLine
 10
533.179803300263
 20
126.140186197977
 30
0.0
 11
532.604367664797
 21
130.234623495751
 31
0.0
  0
INSERT
  5
20E
330
170
100
AcDbEntity
  8
0
100
AcDbBlockReference
  2
DimBlk_nNn08
 10
0.0
 20
0.0
 30
0.0
  0
WIPEOUT
  5
20F
330
170
100
AcDbEntity
  8
PROFILE
  6
AUSGEZOGEN
 62
     3
420
    65280
370
    18
 92
      308
310
34010000070000000C0000000E000000120000000C00000016000000000000C20C00000014000000010000006C0000000700000004000000F0E257B16DC9824062EFBAF820135140000000000000000023161BFB79E4824062EFBAF820135140000000000000000023161BFB79E48240C855215F8779524000000000000000
310
00F0E257B16DC98240C855215F8779524000000000000000000C0000000E000000030000000C0000001600000000FF00C2840000000600000005000000F0E257B16DC9824062EFBAF820135140000000000000000023161BFB79E4824062EFBAF820135140000000000000000023161BFB79E48240C855215F877952400000
310
000000000000F0E257B16DC98240C855215F877952400000000000000000F0E257B16DC9824062EFBAF8201351400000000000000000
100
AcDbWipeout
 90
        0
 10
601.178560911763
 20
68.298887426904
 30
0.0
 11
5.599999999999994
 21
0.0
 31
0.0
 12
0.0
 22
5.599999999999994
 32
0.0
 13
1.0
 23
1.0
340
0
 70
     7
280
     1
281
    50
282
    50
283
     0
360
0
 71
     2
 91
        5
 14
-0.5
 24
0.5
 14
0.103750011751
 24
0.5
 14
0.103750011751
 24
-0.5
 14
-0.5
 24
-0.5
 14
-0.5
 24
0.5
  0
TEXT
  5
210
330
170
100
AcDbEntity
  8
PROFILE
  6
AUSGEZOGEN
 62
     3
420
    65280
370
    18
100
AcDbText
 10
601.178560911763
 20
69.348887426904
 30
0.0
 40
3.5
  1
T
 41
1.13247364455
  7
Arial
 72
     5
 11
604.559560977567
 21
69.348887426904
 31
0.0
100
AcDbText
  0
INSERT
  5
21B
330
170
100
AcDbEntity
  8
0
100
AcDbBlockReference
  2
DimBlk_nNn09
 10
0.0
 20
0.0
 30
0.0
  0
LINE
  5
21C
330
170
100
AcDbEntity
  8
PROFILE
  6
AUSGEZOGEN
 62
     5
420
      255
370
    18
100
AcDbLine
 10
460.221674464213
 20
41.360854354004
 30
0.0
 11
661.389674464213
 21
41.360854354004
 31
0.0
  0
LINE
  5
21D
330
170
100
AcDbEntity
  8
PROFILE
  6
AUSGEZOGEN
 62
     5
420
      255
370
    18
100
AcDbLine
 10
460.221674464213
 20
30.164793371583
 30
0.0
 11
661.389674464213
 21
30.164793371583
 31
0.0
  0
LINE
  5
21E
330
170
100
AcDbEntity
  8
PROFILE
  6
AUSGEZOGEN
 62
     5
420
      255
370
    18
100
AcDbLine
 10
661.389674464213
 20
18.11674944008
 30
0.0
 11
460.221674464213
 21
18.11674944008
 31
0.0
  0
TEXT
  5
21F
330
170
100
AcDbEntity
  8
PROFILE
  6
AUSGEZOGEN
 62
     7
420
 16777215
370
    18
100
AcDbText
 10
462.720662266587
 20
43.001439817515
 30
0.0
 40
3.5
  1
KNIFE GRIND NEEDED ?
 41
1.427091498526
  7
Lucida Calligraphy
 72
     5
 11
544.465890393644
 21
43.001439817515
 31
0.0
100
AcDbText
  0
TEXT
  5
220
330
170
100
AcDbEntity
  8
PROFILE
  6
AUSGEZOGEN
 62
     5
420
      255
370
    18
100
AcDbText
 10
460.804867697645
 20
20.093017664282
 30
0.0
 40
3.5
  1
Circle one
 41
0.902435142448
  7
Lucida Calligraphy
 72
     5
 11
480.649867697645
 21
20.093017664282
 31
0.0
100
AcDbText
  0
TEXT
  5
221
330
170
100
AcDbEntity
  8
PROFILE
  6
AUSGEZOGEN
 62
     5
420
      255
370
    18
100
AcDbText
 10
461.266789499648
 20
24.855978194825
 30
0.0
 40
3.5
  1
Ship via
 41
1.088691690241
  7
Lucida Calligraphy
 72
     5
 11
480.185529346817
 21
24.855978194825
 31
0.0
100
AcDbText
  0
TEXT
  5
222
330
170
100
AcDbEntity
  8
PROFILE
  6
AUSGEZOGEN
 62
     5
420
      255
370
    18
100
AcDbText
 10
587.842409803408
 20
22.242352144763
 30
0.0
 40
3.880555555556
  1
UPS -
 41
0.889874060598
  7
Lucida Calligraphy
 72
     5
 11
600.6986947347
 21
22.242352144763
 31
0.0
100
AcDbText
  0
TEXT
  5
223
330
170
100
AcDbEntity
  8
PROFILE
  6
AUSGEZOGEN
 62
     7
420
 16777215
370
    18
100
AcDbText
 10
568.31966206135
 20
22.28888251836
 30
0.0
 40
3.55825947599
  1
2 Day
 41
0.931746313857
  7
Lucida Calligraphy
 72
     5
 11
580.407592780076
 21
22.28888251836
 31
0.0
100
AcDbText
  0
TEXT
  5
224
330
170
100
AcDbEntity
  8
PROFILE
  6
AUSGEZOGEN
 62
     7
420
 16777215
370
    18
100
AcDbText
 10
541.54146430718
 20
24.610053339782
 30
0.0
 40
2.469444444444
  1
Standard
 41
1.361935045736
  7
Lucida Calligraphy
 72
     5
 11
560.590758996213
 21
24.610053339782
 31
0.0
100
AcDbText
  0
TEXT
  5
225
330
170
100
AcDbEntity
  8
PROFILE
  6
AUSGEZOGEN
 62
     7
420
 16777215
370
    18
100
AcDbText
 10
541.54146430718
 20
20.658942169795
 30
0.0
 40
2.469444444444
  1
Overnight
 41
1.39695919784
  7
Lucida Calligraphy
 72
     5
 11
562.415678458152
 21
20.658942169795
 31
0.0
100
AcDbText
  0
TEXT
  5
226
330
170
100
AcDbEntity
  8
PROFILE
  6
AUSGEZOGEN
 62
     7
420
 16777215
370
    18
100
AcDbText
 10
514.618753387359
 20
24.674666942968
 30
0.0
 40
2.469444444444
  1
Priority
 41
1.595671214319
  7
Lucida Calligraphy
 72
     5
 11
531.732003594267
 21
24.674666942968
 31
0.0
100
AcDbText
  0
TEXT
  5
227
330
170
100
AcDbEntity
  8
PROFILE
  6
AUSGEZOGEN
 62
     7
420
 16777215
370
    18
100
AcDbText
 10
514.618753387359
 20
20.723555772981
 30
0.0
 40
2.469444444444
  1
Overnight
 41
1.39695919784
  7
Lucida Calligraphy
 72
     5
 11
535.492967538331
 21
20.723555772981
 31
0.0
100
AcDbText
  0
TEXT
  5
228
330
170
100
AcDbEntity
  8
PROFILE
  6
AUSGEZOGEN
 62
     5
420
      255
370
    18
100
AcDbText
 10
488.750210907369
 20
22.19949696028
 30
0.0
 40
3.880555555556
  1
FEDEX -
 41
0.870751925974
  7
Lucida Calligraphy
 72
     5
 11
507.358370647105
 21
22.19949696028
 31
0.0
100
AcDbText
  0
TEXT
  5
229
330
170
100
AcDbEntity
  8
PROFILE
  6
AUSGEZOGEN
 62
     7
420
 16777215
370
    18
100
AcDbText
 10
606.346635972886
 20
22.522184276421
 30
0.0
 40
3.175
  1
Red  Blue  Ground
 41
1.345588251381
  7
Lucida Calligraphy
 72
     5
 11
655.733761563329
 21
22.522184276421
 31
0.0
100
AcDbText
  0
LINE
  5
22A
330
170
100
AcDbEntity
  8
PROFILE
  6
AUSGEZOGEN
 62
     5
420
      255
370
    18
100
AcDbLine
 10
584.410071920237
 20
18.11674944008
 30
0.0
 11
584.410071920237
 21
30.003855222807
 31
0.0
  0
TEXT
  5
22B
330
170
100
AcDbEntity
  8
PROFILE
  6
AUSGEZOGEN
 62
     1
420
 16711680
370
    18
100
AcDbText
 10
508.960301962501
 20
32.392305557462
 30
0.0
 40
3.5
  1
FULL
 41
1.318195155484
  7
Lucida Calligraphy
 72
     5
 11
524.706802192336
 21
32.392305557462
 31
0.0
100
AcDbText
  0
LINE
  5
22C
330
170
100
AcDbEntity
  8
PROFILE
  6
AUSGEZOGEN
 62
     5
420
      255
370
    18
100
AcDbLine
 10
460.221674464213
 20
18.11674944008
 30
0.0
 11
460.221674464213
 21
280.06694944008
 31
0.0
  0
LINE
  5
22D
330
170
100
AcDbEntity
  8
PROFILE
  6
AUSGEZOGEN
 62
     5
420
      255
370
    18
100
AcDbLine
 10
661.389674464213
 20
18.11674944008
 30
0.0
 11
661.389674464213
 21
280.06694944008
 31
0.0
  0
LINE
  5
22E
330
170
100
AcDbEntity
  8
PROFILE
  6
AUSGEZOGEN
 62
     5
420
      255
370
    18
100
AcDbLine
 10
661.389674464213
 20
280.06694944008
 30
0.0
 11
460.221674464213
 21
280.06694944008
 31
0.0
  0
WIPEOUT
  5
22F
330
170
100
AcDbEntity
  8
PROFILE
  6
AUSGEZOGEN
 62
     5
420
      255
370
    18
 92
      308
310
34010000070000000C0000000E000000120000000C00000016000000000000C20C00000014000000010000006C00000007000000040000006E8CF38434DD7C40AC96B846AE9348400000000000000000E590C16CAC2F8240AC96B846AE9348400000000000000000E590C16CAC2F8240BF91EAA20BE34B4000000000000000
310
006E8CF38434DD7C40BF91EAA20BE34B4000000000000000000C0000000E000000050000000C00000016000000FF0000C28400000006000000050000006E8CF38434DD7C40AC96B846AE9348400000000000000000E590C16CAC2F8240AC96B846AE9348400000000000000000E590C16CAC2F8240BF91EAA20BE34B400000
310
0000000000006E8CF38434DD7C40BF91EAA20BE34B4000000000000000006E8CF38434DD7C40AC96B846AE9348400000000000000000
100
AcDbWipeout
 90
        0
 10
461.825322104799
 20
49.1537559892
 30
0.0
 11
120.1338697060326
 21
0.0
 31
0.0
 12
0.0
 22
120.1338697060326
 32
0.0
 13
1.0
 23
1.0
340
0
 70
     7
280
     1
281
    50
282
    50
283
     0
360
0
 71
     2
 91
        5
 14
-0.5
 24
0.5
 14
0.5
 24
0.5
 14
0.5
 24
0.444894502762
 14
-0.5
 24
0.444894502762
 14
-0.5
 24
0.5
  0
TEXT
  5
230
330
170
100
AcDbEntity
  8
PROFILE
  6
AUSGEZOGEN
 62
     5
420
      255
370
    18
100
AcDbText
 10
461.825322104799
 20
50.395012856442
 30
0.0
 40
4.137522890809
  1
PLEASE SIGN OR MAKE CORRECT CHANGES.
 41
0.935804806331
  7
Lucida Calligraphy
 72
     5
 11
581.959191810831
 21
50.395012856442
 31
0.0
100
AcDbText
  0
WIPEOUT
  5
231
330
170
100
AcDbEntity
  8
PROFILE
  6
AUSGEZOGEN
 62
     1
420
 16711680
370
    18
 92
      308
310
34010000070000000C0000000E000000120000000C00000016000000000000C20C00000014000000010000006C0000000700000004000000C1C30572FE4E824080108109408E484000000000000000005B5DA79784A8844080108109408E484000000000000000005B5DA79784A884404EDD4DD60C5B4B4000000000000000
310
00C1C30572FE4E82404EDD4DD60C5B4B4000000000000000000C0000000E000000010000000C000000160000000000FFC2840000000600000005000000C1C30572FE4E824080108109408E484000000000000000005B5DA79784A8844080108109408E484000000000000000005B5DA79784A884404EDD4DD60C5B4B400000
310
000000000000C1C30572FE4E82404EDD4DD60C5B4B400000000000000000C1C30572FE4E824080108109408E48400000000000000000
100
AcDbWipeout
 90
        0
 10
585.874240918194
 20
49.111329257984
 30
0.0
 11
75.19050146341328
 21
0.0
 31
0.0
 12
0.0
 22
75.19050146341328
 32
0.0
 13
1.0
 23
1.0
340
0
 70
     7
280
     1
281
    50
282
    50
283
     0
360
0
 71
     2
 91
        5
 14
-0.5
 24
0.5
 14
0.5
 24
0.5
 14
0.5
 24
0.425522507617
 14
-0.5
 24
0.425522507617
 14
-0.5
 24
0.5
  0
TEXT
  5
232
330
170
100
AcDbEntity
  8
PROFILE
  6
AUSGEZOGEN
 62
     1
420
 16711680
370
    18
100
AcDbText
 10
585.874240918194
 20
50.161329257984
 30
0.0
 40
3.5
  1
X------------------
 41
2.309751684563
  7
Brush Script MT
 72
     5
 11
661.064742381608
 21
50.161329257984
 31
0.0
100
AcDbText
  0
LINE
  5
233
330
170
100
AcDbEntity
  8
PROFILE
  6
AUSGEZOGEN
 62
     7
420
 16777215
370
    18
100
AcDbLine
 10
503.925439890664
 20
258.538309560145
 30
0.0
 11
511.153651733932
 21
258.538309560145
 31
0.0
  0
LINE
  5
234
330
170
100
AcDbEntity
  8
PROFILE
  6
AUSGEZOGEN
 62
     7
420
 16777215
370
    18
100
AcDbLine
 10
503.925439890664
 20
256.856569696584
 30
0.0
 11
511.153651733932
 21
256.856569696584
 31
0.0
  0
LINE
  5
235
330
170
100
AcDbEntity
  8
PROFILE
  6
AUSGEZOGEN
 62
     7
420
 16777215
370
    18
100
AcDbLine
 10
499.870589344441
 20
256.856569696584
 30
0.0
 11
503.161482541376
 21
256.856569696584
 31
0.0
  0
LINE
  5
236
330
170
100
AcDbEntity
  8
PROFILE
  6
AUSGEZOGEN
 62
     7
420
 16777215
370
    18
100
AcDbLine
 10
495.874504748163
 20
256.856569696584
 30
0.0
 11
498.989100095262
 21
256.856569696584
 31
0.0
  0
LINE
  5
237
330
170
100
AcDbEntity
  8
PROFILE
  6
AUSGEZOGEN
 62
     7
420
 16777215
370
    18
100
AcDbLine
 10
511.153651733932
 20
259.223462837892
 30
0.0
 11
511.153651733932
 21
264.73645700263
 31
0.0
  0
LINE
  5
238
330
170
100
AcDbEntity
  8
PROFILE
  6
AUSGEZOGEN
 62
     7
420
 16777215
370
    18
100
AcDbLine
 10
511.153651733932
 20
256.856569696584
 30
0.0
 11
511.153651733932
 21
258.538309560145
 31
0.0
  0
LINE
  5
239
330
170
100
AcDbEntity
  8
PROFILE
  6
AUSGEZOGEN
 62
     7
420
 16777215
370
    18
100
AcDbLine
 10
495.874504748163
 20
256.856569696584
 30
0.0
 11
495.874504748163
 21
267.819022140533
 31
0.0
  0
LINE
  5
23A
330
170
100
AcDbEntity
  8
PROFILE
  6
AUSGEZOGEN
 62
     7
420
 16777215
370
    18
100
AcDbLine
 10
498.989100095262
 20
256.856569696584
 30
0.0
 11
498.989100095262
 21
264.148275961792
 31
0.0
  0
LINE
  5
23B
330
170
100
AcDbEntity
  8
PROFILE
  6
AUSGEZOGEN
 62
     7
420
 16777215
370
    18
100
AcDbLine
 10
499.870589344441
 20
256.856569696584
 30
0.0
 11
499.870589344441
 21
264.148275961792
 31
0.0
  0
LINE
  5
23C
330
170
100
AcDbEntity
  8
PROFILE
  6
AUSGEZOGEN
 62
     7
420
 16777215
370
    18
100
AcDbLine
 10
503.925439890664
 20
259.223462837892
 30
0.0
 11
503.925439890664
 21
264.151945326892
 31
0.0
  0
LINE
  5
23D
330
170
100
AcDbEntity
  8
PROFILE
  6
AUSGEZOGEN
 62
     7
420
 16777215
370
    18
100
AcDbLine
 10
503.925439890664
 20
256.856569696584
 30
0.0
 11
503.925439890664
 21
258.538309560145
 31
0.0
  0
LINE
  5
23E
330
170
100
AcDbEntity
  8
PROFILE
  6
AUSGEZOGEN
 62
     7
420
 16777215
370
    18
100
AcDbLine
 10
508.039056386833
 20
259.223462837892
 30
0.0
 11
508.039056386833
 21
267.819022140533
 31
0.0
  0
LINE
  5
23F
330
170
100
AcDbEntity
  8
PROFILE
  6
AUSGEZOGEN
 62
     7
420
 16777215
370
    18
100
AcDbLine
 10
508.039056386833
 20
259.223462837892
 30
0.0
 11
511.153651733932
 21
259.223462837892
 31
0.0
  0
LINE
  5
240
330
170
100
AcDbEntity
  8
PROFILE
  6
AUSGEZOGEN
 62
     7
420
 16777215
370
    18
100
AcDbLine
 10
503.925439890664
 20
259.223462837892
 30
0.0
 11
507.040035237764
 21
259.223462837892
 31
0.0
  0
LINE
  5
241
330
170
100
AcDbEntity
  8
PROFILE
  6
AUSGEZOGEN
 62
     7
420
 16777215
370
    18
100
AcDbLine
 10
508.039056386833
 20
267.819022140533
 30
0.0
 11
512.253591645118
 21
267.819022140533
 31
0.0
  0
LINE
  5
242
330
170
100
AcDbEntity
  8
PROFILE
  6
AUSGEZOGEN
 62
     7
420
 16777215
370
    18
100
AcDbLine
 10
495.874504748163
 20
267.819022140533
 30
0.0
 11
499.127850145559
 21
267.819022140533
 31
0.0
  0
ARC
  5
243
330
170
100
AcDbEntity
  8
PROFILE
  6
AUSGEZOGEN
 62
     7
420
 16777215
370
    18
100
AcDbCircle
 10
499.127850145559
 20
264.906969021651
 30
0.0
 40
2.912053118881551
100
AcDbArc
 50
32.066426975729
 51
90.0
  0
LINE
  5
244
330
170
100
AcDbEntity
  8
PROFILE
  6
AUSGEZOGEN
 62
     7
420
 16777215
370
    18
100
AcDbLine
 10
507.040035237764
 20
259.223462837892
 30
0.0
 11
507.040035237764
 21
264.865323840246
 31
0.0
  0
ARC
  5
245
330
170
100
AcDbEntity
  8
PROFILE
  6
AUSGEZOGEN
 62
     7
420
 16777215
370
    18
100
AcDbCircle
 10
504.086336937476
 20
264.865323840246
 30
0.0
 40
2.953698300287107
100
AcDbArc
 50
0.0
 51
147.485292992988
  0
ARC
  5
246
330
170
100
AcDbEntity
  8
PROFILE
  6
AUSGEZOGEN
 62
     7
420
 16777215
370
    18
100
AcDbCircle
 10
499.429844719851
 20
264.148275961792
 30
0.0
 40
0.4407446245895066
100
AcDbArc
 50
0.0
 51
180.0
  0
LINE
  5
247
330
170
100
AcDbEntity
  8
PROFILE
  6
AUSGEZOGEN
 62
     7
420
 16777215
370
    18
100
AcDbLine
 10
516.501353178952
 20
256.856569696584
 30
0.0
 11
514.673520848768
 21
261.377027646552
 31
0.0
  0
ARC
  5
248
330
170
100
AcDbEntity
  8
PROFILE
  6
AUSGEZOGEN
 62
     7
420
 16777215
370
    18
100
AcDbCircle
 10
512.253591645118
 20
264.143502823076
 30
0.0
 40
3.675519317457272
100
AcDbArc
 50
311.177284003839
 51
90.0
  0
LINE
  5
249
330
170
100
AcDbEntity
  8
PROFILE
  6
AUSGEZOGEN
 62
     7
420
 16777215
370
    18
100
AcDbLine
 10
511.153651733932
 20
264.73645700263
 30
0.0
 11
511.823012165882
 21
264.73645700263
 31
0.0
  0
ARC
  5
24A
330
170
100
AcDbEntity
  8
PROFILE
  6
AUSGEZOGEN
 62
     7
420
 16777215
370
    18
100
AcDbCircle
 10
511.823012165882
 20
263.95729220222
 30
0.0
 40
0.7791648004099827
100
AcDbArc
 50
269.396898994247
 51
90.0
  0
LINE
  5
24B
330
170
100
AcDbEntity
  8
PROFILE
  6
AUSGEZOGEN
 62
     7
420
 16777215
370
    18
100
AcDbLine
 10
512.875507306177
 20
256.856569696584
 30
0.0
 11
516.501353178952
 21
256.856569696584
 31
0.0
  0
LINE
  5
24C
330
170
100
AcDbEntity
  8
PROFILE
  6
AUSGEZOGEN
 62
     7
420
 16777215
370
    18
100
AcDbLine
 10
512.875507306177
 20
256.856569696584
 30
0.0
 11
511.814810752075
 21
259.466421077411
 31
0.0
  0
LINE
  5
24D
330
170
100
AcDbEntity
  8
PROFILE
  6
AUSGEZOGEN
 62
     7
420
 16777215
370
    18
100
AcDbLine
 10
511.823012165882
 20
263.17812740181
 30
0.0
 11
511.814810752075
 21
263.17812740181
 31
0.0
  0
LINE
  5
24E
330
170
100
AcDbEntity
  8
PROFILE
  6
AUSGEZOGEN
 62
     7
420
 16777215
370
    18
100
AcDbLine
 10
511.814810752075
 20
259.466421077411
 30
0.0
 11
511.814810752075
 21
263.178170566653
 31
0.0
  0
LINE
  5
24F
330
170
100
AcDbEntity
  8
PROFILE
  6
AUSGEZOGEN
 62
     7
420
 16777215
370
    18
100
AcDbLine
 10
503.051289371685
 20
256.856569696584
 30
0.0
 11
503.051289371685
 21
264.151945326892
 31
0.0
  0
ARC
  5
250
330
170
100
AcDbEntity
  8
PROFILE
  6
AUSGEZOGEN
 62
     7
420
 16777215
370
    18
100
AcDbCircle
 10
503.488364631175
 20
264.151945326892
 30
0.0
 40
0.437075259489488
100
AcDbArc
 50
0.0
 51
180.0
  0
LINE
  5
251
330
170
100
AcDbEntity
  8
PROFILE
  6
AUSGEZOGEN
 62
     7
420
 16777215
370
    18
100
AcDbLine
 10
514.609088536601
 20
274.3890542903
 30
0.0
 11
518.823623794886
 21
274.3890542903
 31
0.0
  0
LINE
  5
252
330
170
100
AcDbEntity
  8
PROFILE
  6
AUSGEZOGEN
 62
     7
420
 16777215
370
    18
100
AcDbLine
 10
502.44453689793
 20
274.3890542903
 30
0.0
 11
505.697882295327
 21
274.3890542903
 31
0.0
  0
ARC
  5
253
330
170
100
AcDbEntity
  8
PROFILE
  6
AUSGEZOGEN
 62
     7
420
 16777215
370
    18
100
AcDbCircle
 10
505.697882295327
 20
271.477001171419
 30
0.0
 40
2.912053118881559
100
AcDbArc
 50
33.472713849325
 51
90.0
  0
ARC
  5
254
330
170
100
AcDbEntity
  8
PROFILE
  6
AUSGEZOGEN
 62
     7
420
 16777215
370
    18
100
AcDbCircle
 10
510.656369087244
 20
271.435355990013
 30
0.0
 40
2.953698300287107
100
AcDbArc
 50
31.162869112745
 51
135.0
  0
LINE
  5
255
330
170
100
AcDbEntity
  8
PROFILE
  6
AUSGEZOGEN
 62
     7
420
 16777215
370
    18
100
AcDbLine
 10
523.071385328719
 20
263.426601846352
 30
0.0
 11
521.243552998536
 21
267.947059796319
 31
0.0
  0
ARC
  5
256
330
170
100
AcDbEntity
  8
PROFILE
  6
AUSGEZOGEN
 62
     7
420
 16777215
370
    18
100
AcDbCircle
 10
518.823623794886
 20
270.713534972843
 30
0.0
 40
3.675519317457272
100
AcDbArc
 50
311.177284003839
 51
90.0
  0
LINE
  5
257
330
170
100
AcDbEntity
  8
PROFILE
  6
AUSGEZOGEN
 62
     7
420
 16777215
370
    18
100
AcDbLine
 10
502.44453689793
 20
274.3890542903
 30
0.0
 11
495.874504748163
 21
267.819022140533
 31
0.0
  0
LINE
  5
258
330
170
100
AcDbEntity
  8
PROFILE
  6
AUSGEZOGEN
 62
     7
420
 16777215
370
    18
100
AcDbLine
 10
523.071385328719
 20
263.426601846352
 30
0.0
 11
516.501353178952
 21
256.856569696584
 31
0.0
  0
LINE
  5
259
330
170
100
AcDbEntity
  8
PROFILE
  6
AUSGEZOGEN
 62
     7
420
 16777215
370
    18
100
AcDbLine
 10
521.243552998536
 20
267.947059796319
 30
0.0
 11
514.673520848768
 21
261.377027646552
 31
0.0
  0
LINE
  5
25A
330
170
100
AcDbEntity
  8
PROFILE
  6
AUSGEZOGEN
 62
     7
420
 16777215
370
    18
100
AcDbLine
 10
514.609088536601
 20
274.3890542903
 30
0.0
 11
508.039056386833
 21
267.819022140533
 31
0.0
  0
LINE
  5
25B
330
170
100
AcDbEntity
  8
PROFILE
  6
AUSGEZOGEN
 62
     7
420
 16777215
370
    18
100
AcDbLine
 10
501.997756839764
 20
266.953903937958
 30
0.0
 11
508.567788989532
 21
273.523936087726
 31
0.0
  0
LINE
  5
25C
330
170
100
AcDbEntity
  8
PROFILE
  6
AUSGEZOGEN
 62
     7
420
 16777215
370
    18
100
AcDbLine
 10
498.989100095262
 20
256.856569696584
 30
0.0
 11
499.870589344441
 21
257.738058945763
 31
0.0
  0
LINE
  5
25D
330
170
100
AcDbEntity
  8
PROFILE
  6
AUSGEZOGEN
 62
     7
420
 16777215
370
    18
100
AcDbLine
 10
503.161482541376
 20
256.856569696584
 30
0.0
 11
503.925439890664
 21
257.620527045873
 31
0.0
  0
LINE
  5
25E
330
170
100
AcDbEntity
  8
PROFILE
  6
AUSGEZOGEN
 62
     7
420
 16777215
370
    18
100
AcDbLine
 10
511.153651733932
 20
258.538309560145
 30
0.0
 11
511.891953347935
 21
259.276611174148
 31
0.0
  0
LINE
  5
25F
330
170
100
AcDbEntity
  8
PROFILE
  6
AUSGEZOGEN
 62
     7
420
 16777215
370
    18
100
AcDbLine
 10
511.153651733932
 20
256.856569696584
 30
0.0
 11
512.377934108791
 21
258.080852071443
 31
0.0
  0
LINE
  5
260
330
170
100
AcDbEntity
  8
PROFILE
  6
AUSGEZOGEN
 62
     7
420
 16777215
370
    18
100
AcDbLine
 10
503.925439890664
 20
258.538309560145
 30
0.0
 11
504.610593168411
 21
259.223462837892
 31
0.0
  0
LINE
  5
261
330
170
100
AcDbEntity
  8
PROFILE
  6
AUSGEZOGEN
 62
     7
420
 16777215
370
    18
100
AcDbLine
 10
507.040035237764
 20
259.223462837892
 30
0.0
 11
508.039056386833
 21
260.222483986961
 31
0.0
  0
LINE
  5
262
330
170
100
AcDbEntity
  8
PROFILE
  6
AUSGEZOGEN
 62
     7
420
 16777215
370
    18
100
AcDbLine
 10
511.153651733932
 20
259.223462837892
 30
0.0
 11
511.814810752075
 21
259.884621856035
 31
0.0
  0
HATCH
  5
263
330
170
100
AcDbEntity
  8
PROFILE
  6
AUSGEZOGEN
 62
     7
420
 16777215
370
    18
100
AcDbHatch
 10
0.0
 20
0.0
 30
0.0
210
0.0
220
0.0
230
1.0
  2
SOLID
 70
     1
 71
     0
 91
        1
 92
        2
 72
     1
 73
     1
 93
       36
 10
499.8705893444409
 20
264.1482759617915
 42
0.0
 10
499.8705893444409
 20
256.8565696965845
 42
0.0
 10
503.0512893716854
 20
256.8565696965845
 42
0.0
 10
503.0512893716854
 20
264.1519453268915
 42
-0.0984914033571201
 10
503.0845597447654
 20
264.3192067873948
 42
-0.0984914033573957
 10
503.1793057513009
 20
264.4610042067653
 42
-0.0984914033573227
 10
503.3211031706716
 20
264.5557502133009
 42
-0.0984914033569877
 10
503.4883646311749
 20
264.5890205863809
 42
-0.0984914033570521
 10
503.6556260916782
 20
264.5557502133009
 42
-0.09849140335735
 10
503.7974235110487
 20
264.4610042067653
 42
-0.0984914033573958
 10
503.8921695175843
 20
264.3192067873948
 42
-0.0984914033571136
 10
503.9254398906644
 20
264.1519453268915
 42
0.0
 10
503.9254398906644
 20
259.2234628378915
 42
0.0
 10
507.0400352377635
 20
259.2234628378915
 42
0.0
 10
507.0400352377635
 20
264.8653238402458
 42
0.0921921528156865
 10
506.8425690459864
 20
265.9271704455224
 42
0.0921921528156901
 10
506.2765732328404
 20
266.8470399197055
 42
0.0921921528156937
 10
505.4177258306912
 20
267.5019385758762
 42
0.0921921528156405
 10
504.3808614018931
 20
267.8043013816671
 42
0.0921921528156545
 10
503.304616766682
 20
267.7137000835978
 42
0.0921921528156871
 10
502.3328941844829
 20
267.2422487782894
 42
0.0921921528156574
 10
501.5956205051385
 20
266.4529841637409
 42
0.0844609494626365
 10
500.9455095619294
 20
267.1820882741891
 42
0.0844609494626364
 10
500.0908624123574
 20
267.6551794832397
 42
0.084460949462618
 10
499.1278501455593
 20
267.8190221405329
 42
0.0
 10
495.8745047481627
 20
267.8190221405329
 42
0.0
 10
495.8745047481627
 20
256.8565696965845
 42
0.0
 10
498.9891000952619
 20
256.8565696965845
 42
0.0
 10
498.9891000952619
 20
264.1482759617915
 42
-0.0984914033572098
 10
499.0226497821288
 20
264.3169416275258
 42
-0.0984914033570206
 10
499.1181912070326
 20
264.4599294746103
 42
-0.0984914033570751
 10
499.261179054117
 20
264.5554708995141
 42
-0.098491403357133
 10
499.4298447198514
 20
264.589020586381
 42
-0.098491403357101
 10
499.5985103855858
 20
264.5554708995141
 42
-0.0984914033571021
 10
499.7414982326701
 20
264.4599294746103
 42
-0.0984914033570026
 10
499.837039657574
 20
264.3169416275258
 42
-0.0984914033572098
 97
        0
 75
     0
 76
     1
 98
        0
  0
HATCH
  5
264
330
170
100
AcDbEntity
  8
PROFILE
  6
AUSGEZOGEN
 62
     7
420
 16777215
370
    18
100
AcDbHatch
 10
0.0
 20
0.0
 30
0.0
210
0.0
220
0.0
230
1.0
  2
SOLID
 70
     1
 71
     0
 91
        1
 92
        2
 72
     1
 73
     1
 93
       25
 10
512.2535916451181
 20
267.8190221405329
 42
0.0
 10
508.0390563868331
 20
267.8190221405329
 42
0.0
 10
508.0390563868331
 20
259.2234628378915
 42
0.0
 10
511.1536517339322
 20
259.2234628378915
 42
0.0
 10
511.1536517339322
 20
264.7364570026301
 42
0.0
 10
511.8230121658818
 20
264.7364570026301
 42
-0.0984914033573361
 10
512.1211856260808
 20
264.677146613772
 42
-0.0984914033573381
 10
512.3739648799135
 20
264.5082449162518
 42
-0.0984914033570648
 10
512.5428665774339
 20
264.2554656624191
 42
-0.0984914033571532
 10
512.6021769662918
 20
263.9572922022201
 42
-0.0984914033571352
 10
512.5428665774339
 20
263.6591187420211
 42
-0.0984914033570341
 10
512.3739648799135
 20
263.4063394881883
 42
-0.0984914033573383
 10
512.1211856260808
 20
263.237437790668
 42
-0.0984914033573433
 10
511.8230121658818
 20
263.1781274018101
 42
0.0
 10
511.8148107520752
 20
263.1781274018101
 42
0.0
 10
511.8148107520752
 20
259.4664210774113
 42
0.0
 10
512.8755073061775
 20
256.8565696965845
 42
0.0
 10
516.5013531789516
 20
256.8565696965845
 42
0.0
 10
514.6735208487682
 20
261.3770276465518
 42
0.0
 10
515.0200668216418
 20
261.7235736194252
 42
0.0956852398052965
 10
515.7222447785821
 20
262.9278187799491
 42
0.0956852398052953
 10
515.9254757199966
 20
264.306933522931
 42
0.0956852398053051
 10
515.6005259728199
 20
265.662539642594
 42
0.0956852398052712
 10
514.7941378027992
 20
266.7996405216321
 42
0.0956852398052852
 10
513.6223057920697
 20
267.5546703412336
 42
0.0956852398052959
 97
        0
 75
     0
 76
     1
 98
        0
  0
HATCH
  5
265
330
170
100
AcDbEntity
  8
PROFILE
  6
AUSGEZOGEN
 62
     1
420
 16711680
370
    18
100
AcDbHatch
 10
0.0
 20
0.0
 30
0.0
210
0.0
220
0.0
230
1.0
  2
SOLID
 70
     1
 71
     0
 91
        1
 92
        2
 72
     0
 73
     1
 93
        4
 10
503.9254398906644
 20
258.5383095601447
 10
503.9254398906644
 20
256.8565696965845
 10
511.1536517339322
 20
256.8565696965845
 10
511.1536517339322
 20
258.5383095601447
 97
        0
 75
     0
 76
     1
 98
        0
  0
LINE
  5
266
330
170
100
AcDbEntity
  8
PROFILE
  6
AUSGEZOGEN
 62
     5
420
      255
370
    18
100
AcDbLine
 10
500.885683648314
 20
277.588507459372
 30
0.0
 11
620.738301881016
 21
277.588507459372
 31
0.0
  0
LINE
  5
267
330
170
100
AcDbEntity
  8
PROFILE
  6
AUSGEZOGEN
 62
     5
420
      255
370
    18
100
AcDbLine
 10
491.360683648314
 20
262.132742853503
 30
0.0
 11
491.360683648314
 21
268.063507459372
 31
0.0
  0
ARC
  5
268
330
170
100
AcDbEntity
  8
PROFILE
  6
AUSGEZOGEN
 62
     5
420
      255
370
    18
100
AcDbCircle
 10
500.885683648314
 20
268.063507459372
 30
0.0
 40
9.524999999999999
100
AcDbArc
 50
90.0
 51
180.0
  0
WIPEOUT
  5
269
330
170
100
AcDbEntity
  8
PROFILE
  6
AUSGEZOGEN
 62
     1
420
 16711680
370
    18
 92
      308
310
34010000070000000C0000000E000000120000000C00000016000000000000C20C00000014000000010000006C0000000700000004000000FE24CB07BA7D80409B062CE21FD2704000000000000000005C92A37A877983409B062CE21FD2704000000000000000005C92A37A877983404FA9BD628F50714000000000000000
310
00FE24CB07BA7D80404FA9BD628F50714000000000000000000C0000000E000000010000000C000000160000000000FFC2840000000600000005000000FE24CB07BA7D80409B062CE21FD2704000000000000000005C92A37A877983409B062CE21FD2704000000000000000005C92A37A877983404FA9BD628F5071400000
310
000000000000FE24CB07BA7D80404FA9BD628F5071400000000000000000FE24CB07BA7D80409B062CE21FD270400000000000000000
100
AcDbWipeout
 90
        0
 10
527.715835177485
 20
269.132784053779
 30
0.0
 11
95.47531670650255
 21
0.0
 31
0.0
 12
0.0
 22
95.47531670650255
 32
0.0
 13
1.0
 23
1.0
340
0
 70
     7
280
     1
281
    50
282
    50
283
     0
360
0
 71
     2
 91
        5
 14
-0.5
 24
0.5
 14
0.5
 24
0.5
 14
0.5
 24
0.417232825249
 14
-0.5
 24
0.417232825249
 14
-0.5
 24
0.5
  0
TEXT
  5
26A
330
170
100
AcDbEntity
  8
PROFILE
  6
AUSGEZOGEN
 62
     1
420
 16711680
370
    18
100
AcDbText
 10
527.715835177485
 20
270.614450720446
 30
0.0
 40
4.938888888889
  1
Mirror Reflections Inc.
 41
1.424144335948
  7
Lucida Calligraphy
 72
     5
 11
623.191151883987
 21
270.614450720446
 31
0.0
100
AcDbText
  0
WIPEOUT
  5
26B
330
170
100
AcDbEntity
  8
PROFILE
  6
AUSGEZOGEN
 62
     7
420
 16777215
370
    18
 92
      308
310
34010000070000000C0000000E000000120000000C00000016000000000000C20C00000014000000010000006C000000070000000400000077EF8E48F979804052E52354EA80704000000000000000000FB270F8B57A834052E52354EA80704000000000000000000FB270F8B57A8340EC7EBDED83DA704000000000000000
310
0077EF8E48F9798040EC7EBDED83DA704000000000000000000C0000000E000000070000000C00000016000000FFFFFFC284000000060000000500000077EF8E48F979804052E52354EA80704000000000000000000FB270F8B57A834052E52354EA80704000000000000000000FB270F8B57A8340EC7EBDED83DA70400000
310
00000000000077EF8E48F9798040EC7EBDED83DA7040000000000000000077EF8E48F979804052E52354EA8070400000000000000000
100
AcDbWipeout
 90
        0
 10
527.246720425303
 20
264.057209148615
 30
0.0
 11
96.0921323430548
 21
0.0
 31
0.0
 12
0.0
 22
96.0921323430548
 32
0.0
 13
1.0
 23
1.0
340
0
 70
     7
280
     1
281
    50
282
    50
283
     0
360
0
 71
     2
 91
        5
 14
-0.5
 24
0.5
 14
0.5
 24
0.5
 14
0.5
 24
0.441722596185
 14
-0.5
 24
0.441722596185
 14
-0.5
 24
0.5
  0
TEXT
  5
26C
330
170
100
AcDbEntity
  8
PROFILE
  6
AUSGEZOGEN
 62
     7
420
 16777215
370
    18
100
AcDbText
 10
527.246720425303
 20
265.107209148615
 30
0.0
 40
3.5
  1
1588 South 250 East - Kaysville Utah 84037
 41
1.002442491425
  7
Lucida Calligraphy
 72
     5
 11
623.338852768358
 21
265.107209148615
 31
0.0
100
AcDbText
  0
WIPEOUT
  5
26D
330
170
100
AcDbEntity
  8
PROFILE
  6
AUSGEZOGEN
 62
     7
420
 16777215
370
    18
 92
      308
310
34010000070000000C0000000E000000120000000C00000016000000000000C20C00000014000000010000006C00000007000000040000006A8416CA777280400AB4293377277040000000000000000042333C01FC7583400AB4293377277040000000000000000042333C01FC758340A44DC3CC1081704000000000000000
310
006A8416CA77728040A44DC3CC1081704000000000000000000C0000000E000000070000000C00000016000000FFFFFFC28400000006000000050000006A8416CA777280400AB4293377277040000000000000000042333C01FC7583400AB4293377277040000000000000000042333C01FC758340A44DC3CC108170400000
310
0000000000006A8416CA77728040A44DC3CC1081704000000000000000006A8416CA777280400AB42933772770400000000000000000
100
AcDbWipeout
 90
        0
 10
526.30849092094
 20
258.466601527122
 30
0.0
 11
96.43955830993502
 21
0.0
 31
0.0
 12
0.0
 22
96.43955830993502
 32
0.0
 13
1.0
 23
1.0
340
0
 70
     7
280
     1
281
    50
282
    50
283
     0
360
0
 71
     2
 91
        5
 14
-0.5
 24
0.5
 14
0.5
 24
0.5
 14
0.5
 24
0.441932542018
 14
-0.5
 24
0.441932542018
 14
-0.5
 24
0.5
  0
TEXT
  5
26E
330
170
100
AcDbEntity
  8
PROFILE
  6
AUSGEZOGEN
 62
     7
420
 16777215
370
    18
100
AcDbText
 10
526.30849092094
 20
259.516601527122
 30
0.0
 40
3.5
  1
Phone / Fax (801)-451-5987
 41
1.571470258762
  7
Lucida Calligraphy
 72
     5
 11
622.748049230875
 21
259.516601527122
 31
0.0
100
AcDbText
  0
WIPEOUT
  5
26F
330
170
100
AcDbEntity
  8
PROFILE
  6
AUSGEZOGEN
 62
     7
420
 16777215
370
    18
 92
      308
310
34010000070000000C0000000E000000120000000C00000016000000000000C20C00000014000000010000006C0000000700000004000000301901C50F708040B03C3AF0799C6F40000000000000000080DE170875748340B03C3AF0799C6F40000000000000000080DE170875748340FD6D179D8C28704000000000000000
310
00301901C50F708040FD6D179D8C28704000000000000000000C0000000E000000070000000C00000016000000FFFFFFC2840000000600000005000000301901C50F708040B03C3AF0799C6F40000000000000000080DE170875748340B03C3AF0799C6F40000000000000000080DE170875748340FD6D179D8C2870400000
310
000000000000301901C50F708040FD6D179D8C2870400000000000000000301901C50F708040B03C3AF0799C6F400000000000000000
100
AcDbWipeout
 90
        0
 10
526.007699974614
 20
252.889885057205
 30
0.0
 11
96.54944436826361
 21
0.0
 31
0.0
 12
0.0
 22
96.54944436826361
 32
0.0
 13
1.0
 23
1.0
340
0
 70
     7
280
     1
281
    50
282
    50
283
     0
360
0
 71
     2
 91
        5
 14
-0.5
 24
0.5
 14
0.5
 24
0.5
 14
0.5
 24
0.441538302148
 14
-0.5
 24
0.441538302148
 14
-0.5
 24
0.5
  0
TEXT
  5
270
330
170
100
AcDbEntity
  8
PROFILE
  6
AUSGEZOGEN
 62
     7
420
 16777215
370
    18
100
AcDbText
 10
526.007699974614
 20
253.948218390539
 30
0.0
 40
3.527777777778
  1
www.mirror-reflections.com
 41
1.618758291542
  7
Lucida Calligraphy
 72
     5
 11
622.557144342878
 21
253.948218390539
 31
0.0
100
AcDbText
  0
LINE
  5
271
330
170
100
AcDbEntity
  8
PROFILE
  6
AUSGEZOGEN
 62
     5
420
      255
370
    18
100
AcDbLine
 10
630.263301881016
 20
262.132742853503
 30
0.0
 11
630.263301881016
 21
268.063507459372
 31
0.0
  0
ARC
  5
272
330
170
100
AcDbEntity
  8
PROFILE
  6
AUSGEZOGEN
 62
     5
420
      255
370
    18
100
AcDbCircle
 10
620.738301881016
 20
268.063507459372
 30
0.0
 40
9.524999999999999
100
AcDbArc
 50
0.0
 51
90.0
  0
LINE
  5
273
330
170
100
AcDbEntity
  8
PROFILE
  6
AUSGEZOGEN
 62
     5
420
      255
370
    18
100
AcDbLine
 10
500.885683648314
 20
252.607742853503
 30
0.0
 11
620.738301881016
 21
252.607742853503
 31
0.0
  0
ARC
  5
274
330
170
100
AcDbEntity
  8
PROFILE
  6
AUSGEZOGEN
 62
     5
420
      255
370
    18
100
AcDbCircle
 10
620.738301881016
 20
262.132742853503
 30
0.0
 40
9.524999999999999
100
AcDbArc
 50
270.0
 51
0.0
  0
ARC
  5
275
330
170
100
AcDbEntity
  8
PROFILE
  6
AUSGEZOGEN
 62
     5
420
      255
370
    18
100
AcDbCircle
 10
500.885683648314
 20
262.132742853503
 30
0.0
 40
9.524999999999999
100
AcDbArc
 50
180.0
 51
270.0
  0
LINE
  5
276
330
170
100
AcDbEntity
  8
PROFILE
  6
AUSGEZOGEN
 62
     5
420
      255
370
    18
100
AcDbLine
 10
618.545655679438
 20
30.164793371583
 30
0.0
 11
618.545655679438
 21
41.360854354004
 31
0.0
  0
WIPEOUT
  5
277
330
170
100
AcDbEntity
  8
PROFILE
  6
AUSGEZOGEN
 62
     5
420
      255
370
    18
 92
      308
310
34010000070000000C0000000E000000120000000C00000016000000000000C20C00000014000000010000006C000000070000000400000015B8581AAF9C7D40B23A2FC8344742400000000000000000D582FA5F65887E40B23A2FC8344742400000000000000000D582FA5F65887E409F6BA4813289444000000000000000
310
0015B8581AAF9C7D409F6BA4813289444000000000000000000C0000000E000000050000000C00000016000000FF0000C284000000060000000500000015B8581AAF9C7D40B23A2FC8344742400000000000000000D582FA5F65887E40B23A2FC8344742400000000000000000D582FA5F65887E409F6BA481328944400000
310
00000000000015B8581AAF9C7D409F6BA48132894440000000000000000015B8581AAF9C7D40B23A2FC8344742400000000000000000
100
AcDbWipeout
 90
        0
 10
473.792749735412
 20
36.556298277913
 30
0.0
 11
14.73199999999997
 21
0.0
 31
0.0
 12
0.0
 22
14.73199999999997
 32
0.0
 13
1.0
 23
1.0
340
0
 70
     7
280
     1
281
    50
282
    50
283
     0
360
0
 71
     2
 91
        5
 14
-0.5
 24
0.5
 14
0.5
 24
0.5
 14
0.5
 24
0.193486590038
 14
-0.5
 24
0.193486590038
 14
-0.5
 24
0.5
  0
TEXT
  5
278
330
170
100
AcDbEntity
  8
PROFILE
  6
AUSGEZOGEN
 62
     5
420
      255
370
    18
100
AcDbText
 10
473.792749735412
 20
37.40296494458
 30
0.0
 40
2.822222222222
  1
Customer
 41
0.862809917355
  7
Lucida Calligraphy
 72
     5
 11
488.524749735411
 21
37.40296494458
 31
0.0
100
AcDbText
  0
WIPEOUT
  5
279
330
170
100
AcDbEntity
  8
PROFILE
  6
AUSGEZOGEN
 62
     5
420
      255
370
    18
 92
      308
310
34010000070000000C0000000E000000120000000C00000016000000000000C20C00000014000000010000006C00000007000000040000004A3661D3680680407D1D30C5E01D42400000000000000000141FCF2C144680407D1D30C5E01D42400000000000000000141FCF2C144680406A4EA57EDE5F444000000000000000
310
004A3661D3680680406A4EA57EDE5F444000000000000000000C0000000E000000050000000C00000016000000FF0000C28400000006000000050000004A3661D3680680407D1D30C5E01D42400000000000000000141FCF2C144680407D1D30C5E01D42400000000000000000141FCF2C144680406A4EA57EDE5F44400000
310
0000000000004A3661D3680680406A4EA57EDE5F444000000000000000004A3661D3680680407D1D30C5E01D42400000000000000000
100
AcDbWipeout
 90
        0
 10
512.801184424848
 20
36.233421944135
 30
0.0
 11
7.958666666666659
 21
0.0
 31
0.0
 12
0.0
 22
7.958666666666659
 32
0.0
 13
1.0
 23
1.0
340
0
 70
     7
280
     1
281
    50
282
    50
283
     0
360
0
 71
     2
 91
        5
 14
-0.5
 24
0.5
 14
0.5
 24
0.5
 14
0.5
 24
-0.067375886525
 14
-0.5
 24
-0.067375886525
 14
-0.5
 24
0.5
  0
TEXT
  5
27A
330
170
100
AcDbEntity
  8
PROFILE
  6
AUSGEZOGEN
 62
     5
420
      255
370
    18
100
AcDbText
 10
512.801184424848
 20
37.080088610802
 30
0.0
 40
2.822222222222
  1
Scale
 41
0.807791463764
  7
Lucida Calligraphy
 72
     5
 11
520.759851091515
 21
37.080088610802
 31
0.0
100
AcDbText
  0
WIPEOUT
  5
27B
330
170
100
AcDbEntity
  8
PROFILE
  6
AUSGEZOGEN
 62
     5
420
      255
370
    18
 92
      308
310
34010000070000000C0000000E000000120000000C00000016000000000000C20C00000014000000010000006C000000070000000400000062BFC0720FC38140D5564CD8084242400000000000000000AE68F96D00148240D5564CD8084242400000000000000000AE68F96D00148240C287C1910684444000000000000000
310
0062BFC0720FC38140C287C1910684444000000000000000000C0000000E000000050000000C00000016000000FF0000C284000000060000000500000062BFC0720FC38140D5564CD8084242400000000000000000AE68F96D00148240D5564CD8084242400000000000000000AE68F96D00148240C287C191068444400000
310
00000000000062BFC0720FC38140C287C19106844440000000000000000062BFC0720FC38140D5564CD8084242400000000000000000
100
AcDbWipeout
 90
        0
 10
568.382543092575
 20
36.51589492538
 30
0.0
 11
10.11766666666665
 21
0.0
 31
0.0
 12
0.0
 22
10.11766666666665
 32
0.0
 13
1.0
 23
1.0
340
0
 70
     7
280
     1
281
    50
282
    50
283
     0
360
0
 71
     2
 91
        5
 14
-0.5
 24
0.5
 14
0.5
 24
0.5
 14
0.5
 24
0.05369595537
 14
-0.5
 24
0.05369595537
 14
-0.5
 24
0.5
  0
TEXT
  5
27C
330
170
100
AcDbEntity
  8
PROFILE
  6
AUSGEZOGEN
 62
     5
420
      255
370
    18
100
AcDbText
 10
568.382543092575
 20
37.362561592046
 30
0.0
 40
2.822222222222
  1
Part #
 41
0.962674543502
  7
Lucida Calligraphy
 72
     5
 11
578.500209759242
 21
37.362561592046
 31
0.0
100
AcDbText
  0
WIPEOUT
  5
27D
330
170
100
AcDbEntity
  8
PROFILE
  6
AUSGEZOGEN
 62
     5
420
      255
370
    18
 92
      308
310
34010000070000000C0000000E000000120000000C00000016000000000000C20C00000014000000010000006C0000000700000004000000521E3489BDD4834081E190B0152C42400000000000000000E6A8E7985C11844081E190B0152C42400000000000000000E6A8E7985C1184406E12066A136E444000000000000000
310
00521E3489BDD483406E12066A136E444000000000000000000C0000000E000000050000000C00000016000000FF0000C2840000000600000005000000521E3489BDD4834081E190B0152C42400000000000000000E6A8E7985C11844081E190B0152C42400000000000000000E6A8E7985C1184406E12066A136E44400000
310
000000000000521E3489BDD483406E12066A136E44400000000000000000521E3489BDD4834081E190B0152C42400000000000000000
100
AcDbWipeout
 90
        0
 10
634.592546851325
 20
36.344411917441
 30
0.0
 11
7.577666666666687
 21
0.0
 31
0.0
 12
0.0
 22
7.577666666666687
 32
0.0
 13
1.0
 23
1.0
340
0
 70
     7
280
     1
281
    50
282
    50
283
     0
360
0
 71
     2
 91
        5
 14
-0.5
 24
0.5
 14
0.5
 24
0.5
 14
0.5
 24
-0.095903165736
 14
-0.5
 24
-0.095903165736
 14
-0.5
 24
0.5
  0
TEXT
  5
27E
330
170
100
AcDbEntity
  8
PROFILE
  6
AUSGEZOGEN
 62
     5
420
      255
370
    18
100
AcDbText
 10
634.592546851325
 20
37.191078584108
 30
0.0
 40
2.822222222222
  1
Date
 41
0.91078697422
  7
Lucida Calligraphy
 72
     5
 11
642.170213517992
 21
37.191078584108
 31
0.0
100
AcDbText
  0
LINE
  5
27F
330
170
100
AcDbEntity
  8
PROFILE
  6
AUSGEZOGEN
 62
     5
420
      255
370
    18
100
AcDbLine
 10
505.305082813541
 20
30.164793371583
 30
0.0
 11
505.305082813541
 21
41.360854354004
 31
0.0
  0
LINE
  5
280
330
170
100
AcDbEntity
  8
PROFILE
  6
AUSGEZOGEN
 62
     5
420
      255
370
    18
100
AcDbLine
 10
528.463857583026
 20
30.164793371583
 30
0.0
 11
528.463857583026
 21
41.360854354004
 31
0.0
  0
TEXT
  5
281
330
170
100
AcDbEntity
  8
PROFILE
  6
AUSGEZOGEN
 62
     7
420
 16777215
370
    18
100
AcDbText
 10
556.205335252673
 20
43.676679770043
 30
0.0
 40
4.181939959382
  1
 Yes   No       Please Circle One
 41
1.180002116037
  7
Lucida Calligraphy
 72
     5
 11
653.443559366568
 21
43.676679770043
 31
0.0
100
AcDbText
  0
WIPEOUT
  5
282
330
170
100
AcDbEntity
  8
PROFILE
  6
AUSGEZOGEN
 62
     7
420
 16777215
370
    18
 92
      308
310
34010000070000000C0000000E000000120000000C00000016000000000000C20C00000014000000010000006C0000000700000004000000F2CB17FEC44180401DB9CF78461170400000000000000000600E6DD57E4980401DB9CF78461170400000000000000000600E6DD57E498040DFDD1B9ECF26704000000000000000
310
00F2CB17FEC4418040DFDD1B9ECF26704000000000000000000C0000000E000000070000000C00000016000000FFFFFFC2840000000600000005000000F2CB17FEC44180401DB9CF78461170400000000000000000600E6DD57E4980401DB9CF78461170400000000000000000600E6DD57E498040DFDD1B9ECF2670400000
310
000000000000F2CB17FEC4418040DFDD1B9ECF2670400000000000000000F2CB17FEC44180401DB9CF78461170400000000000000000
100
AcDbWipeout
 90
        0
 10
520.221187768852
 20
257.079705058497
 30
0.0
 11
1.345982835231666
 21
0.0
 31
0.0
 12
0.0
 22
1.345982835231666
 32
0.0
 13
1.0
 23
1.0
340
0
 70
     7
280
     1
281
    50
282
    50
283
     0
360
0
 71
     2
 91
        5
 14
-0.5
 24
0.5
 14
0.217500046182
 24
0.5
 14
0.217500046182
 24
-0.5
 14
-0.5
 24
-0.5
 14
-0.5
 24
0.5
  0
TEXT
  5
283
330
170
100
AcDbEntity
  8
PROFILE
  6
AUSGEZOGEN
 62
     7
420
 16777215
370
    18
100
AcDbText
 10
520.221187768852
 20
257.332076840103
 30
0.0
 40
0.84123927202
  1
R
 41
1.138888962193
  7
Arial
 72
     5
 11
521.18693051529
 21
257.332076840103
 31
0.0
100
AcDbText
  0
CIRCLE
  5
284
330
170
100
AcDbEntity
  8
PROFILE
  6
AUSGEZOGEN
 62
     7
420
 16777215
370
    18
100
AcDbCircle
 10
520.692420773414
 20
257.758221076662
 30
0.0
 40
1.0541
  0
LINE
  5
285
330
170
100
AcDbEntity
  8
PROFILE
  6
AUSGEZOGEN
 62
     7
420
 16777215
370
    18
100
AcDbLine
 10
653.296682655664
 20
174.838499125367
 30
0.0
 11
620.639539798521
 21
174.838499125367
 31
0.0
  0
LINE
  5
286
330
170
100
AcDbEntity
  8
PROFILE
  6
AUSGEZOGEN
 62
     7
420
 16777215
370
    18
100
AcDbLine
 10
653.296682655664
 20
174.838499125367
 30
0.0
 11
653.296682655664
 21
191.167070553939
 31
0.0
  0
LINE
  5
287
330
170
100
AcDbEntity
  8
PROFILE
  6
AUSGEZOGEN
 62
     7
420
 16777215
370
    18
100
AcDbLine
 10
620.639539798521
 20
174.838499125367
 30
0.0
 11
620.639539798521
 21
177.559927696796
 31
0.0
  0
LINE
  5
288
330
170
100
AcDbEntity
  8
PROFILE
  6
AUSGEZOGEN
 62
     7
420
 16777215
370
    18
100
AcDbLine
 10
653.296682655664
 20
191.167070553939
 30
0.0
 11
650.575254084236
 21
191.167070553939
 31
0.0
  0
LINE
  5
289
330
170
100
AcDbEntity
  8
PROFILE
  6
AUSGEZOGEN
 62
     7
420
 16777215
370
    18
100
AcDbLine
 10
650.575254084236
 20
177.559927696796
 30
0.0
 11
650.575254084236
 21
191.167070553939
 31
0.0
  0
LINE
  5
28A
330
170
100
AcDbEntity
  8
PROFILE
  6
AUSGEZOGEN
 62
     7
420
 16777215
370
    18
100
AcDbLine
 10
650.575254084236
 20
177.559927696796
 30
0.0
 11
620.639539798521
 21
177.559927696796
 31
0.0
  0
WIPEOUT
  5
28B
330
170
100
AcDbEntity
  8
PROFILE
  6
AUSGEZOGEN
 62
     7
420
 16777215
370
    18
 92
      308
310
34010000070000000C0000000E000000120000000C00000016000000000000C20C00000014000000010000006C0000000700000004000000C461A102497E8340AE7B1C3167C466400000000000000000E82C222A22328440AE7B1C3167C466400000000000000000E82C222A223284404815B6CA005E674000000000000000
310
00C461A102497E83404815B6CA005E674000000000000000000C0000000E000000070000000C00000016000000FFFFFFC2840000000600000005000000C461A102497E8340AE7B1C3167C466400000000000000000E82C222A22328440AE7B1C3167C466400000000000000000E82C222A223284404815B6CA005E67400000
310
000000000000C461A102497E83404815B6CA005E67400000000000000000C461A102497E8340AE7B1C3167C466400000000000000000
100
AcDbWipeout
 90
        0
 10
623.785649548336
 20
182.137596660262
 30
0.0
 11
22.48103237743317
 21
0.0
 31
0.0
 12
0.0
 22
22.48103237743317
 32
0.0
 13
1.0
 23
1.0
340
0
 70
     7
280
     1
281
    50
282
    50
283
     0
360
0
 71
     2
 91
        5
 14
-0.5
 24
0.5
 14
0.5
 24
0.5
 14
0.5
 24
0.28648667377
 14
-0.5
 24
0.28648667377
 14
-0.5
 24
0.5
  0
TEXT
  5
28C
330
170
100
AcDbEntity
  8
PROFILE
  6
AUSGEZOGEN
 62
     7
420
 16777215
370
    18
100
AcDbText
 10
623.785649548336
 20
183.037596660262
 30
0.0
 40
3.0
  1
In Feed View
 41
0.919921121918
  7
Lucida Calligraphy
 72
     5
 11
646.266681925769
 21
183.037596660262
 31
0.0
100
AcDbText
  0
WIPEOUT
  5
28D
330
170
100
AcDbEntity
  8
PROFILE
  6
AUSGEZOGEN
 62
     5
420
      255
370
    18
 92
      308
310
34010000070000000C0000000E000000120000000C00000016000000000000C20C00000014000000010000006C0000000700000004000000FA6F98A291838340CD03EC2AA22B654000000000000000002EA35B67B2448440CD03EC2AA22B654000000000000000002EA35B67B2448440679D85C43BC5654000000000000000
310
00FA6F98A291838340679D85C43BC5654000000000000000000C0000000E000000050000000C00000016000000FF0000C2840000000600000005000000FA6F98A291838340CD03EC2AA22B654000000000000000002EA35B67B2448440CD03EC2AA22B654000000000000000002EA35B67B2448440679D85C43BC565400000
310
000000000000FA6F98A291838340679D85C43BC565400000000000000000FA6F98A291838340CD03EC2AA22B65400000000000000000
100
AcDbWipeout
 90
        0
 10
624.446110907476
 20
169.363545857398
 30
0.0
 11
24.14100029468534
 21
0.0
 31
0.0
 12
0.0
 22
24.14100029468534
 32
0.0
 13
1.0
 23
1.0
340
0
 70
     7
280
     1
281
    50
282
    50
283
     0
360
0
 71
     2
 91
        5
 14
-0.5
 24
0.5
 14
0.5
 24
0.5
 14
0.5
 24
0.301168139621
 14
-0.5
 24
0.301168139621
 14
-0.5
 24
0.5
  0
TEXT
  5
28E
330
170
100
AcDbEntity
  8
PROFILE
  6
AUSGEZOGEN
 62
     5
420
      255
370
    18
100
AcDbText
 10
624.446110907476
 20
170.263545857398
 30
0.0
 40
3.0
  1
Bed Plate
 41
1.329643109423
  7
Lucida Calligraphy
 72
     5
 11
648.587111202161
 21
170.263545857398
 31
0.0
100
AcDbText
  0
WIPEOUT
  5
28F
330
170
100
AcDbEntity
  8
PROFILE
  6
AUSGEZOGEN
 62
     5
420
      255
370
    18
 92
      308
310
34010000070000000C0000000E000000120000000C00000016000000000000C20C00000014000000010000006C000000070000000400000064835665CE95844070F90065EAEC6540000000000000000064835665CE9584400A931A2E61B367400000000000000000FE1CF0FE676F84400A931A2E61B3674000000000000000
310
00FE1CF0FE676F844070F90065EAEC654000000000000000000C0000000E000000050000000C00000016000000FF0000C284000000060000000500000064835665CE95844070F90065EAEC6540000000000000000064835665CE9584400A931A2E61B367400000000000000000FE1CF0FE676F84400A931A2E61B367400000
310
000000000000FE1CF0FE676F844070F90065EAEC6540000000000000000064835665CE95844070F90065EAEC65400000000000000000
100
AcDbWipeout
 90
        0
 10
653.925779224286
 20
175.403612615493
 30
0.0
 11
14.20200018882753
 21
0.0
 31
0.0
 12
0.0
 22
14.20200018882753
 32
0.0
 13
1.0
 23
1.0
340
0
 70
     7
280
     1
281
    50
282
    50
283
     0
360
0
 71
     2
 91
        5
 14
-0.162019438376
 24
0.5
 14
-0.162019438376
 24
-0.5
 14
-0.5
 24
-0.5
 14
-0.5
 24
0.5
 14
-0.162019438376
 24
0.5
  0
TEXT
  5
290
330
170
100
AcDbEntity
  8
PROFILE
  6
AUSGEZOGEN
 62
     5
420
      255
370
    18
100
AcDbText
 10
657.825779224286
 20
175.403612615493
 30
0.0
 40
3.0
  1
Fence
 50
90.0
 41
1.220417649637
  7
Lucida Calligraphy
 72
     5
 11
657.825779224286
 21
189.60561280432
 31
0.0
100
AcDbText
  0
INSERT
  5
2E9
330
170
100
AcDbEntity
  8
0
100
AcDbBlockReference
  2
*X11
 10
0.0
 20
0.0
 30
0.0
  0
ENDBLK
  5
172
330
170
100
AcDbEntity
  8
0
100
AcDbBlockEnd
  0
BLOCK
  5
1BA
330
1B9
100
AcDbEntity
  8
0
100
AcDbBlockBegin
  2
DimBlk_nNn01
 70
     0
 10
0.0
 20
0.0
 30
0.0
  3
DimBlk_nNn01
  1
DimBlk_nNn01
  0
LWPOLYLINE
  5
1BC
330
1B9
100
AcDbEntity
  8
PROFILE
  6
AUSGEZOGEN
 62
     5
420
      255
370
    18
100
AcDbPolyline
 90
        3
 70
     1
 43
0.0
 10
533.16435385939
 20
147.300052659062
 10
536.66435385939
 20
146.425052659062
 10
536.66435385939
 20
148.175052659062
  0
LWPOLYLINE
  5
1BD
330
1B9
100
AcDbEntity
  8
PROFILE
  6
AUSGEZOGEN
 62
     5
420
      255
370
    18
100
AcDbPolyline
 90
        3
 70
     1
 43
0.0
 10
590.30831201133
 20
147.300052659062
 10
586.80831201133
 20
148.175052659062
 10
586.80831201133
 20
146.425052659062
  0
LINE
  5
1BE
330
1B9
100
AcDbEntity
  8
PROFILE
  6
AUSGEZOGEN
 62
     5
420
      255
370
    18
100
AcDbLine
 10
586.80831201133
 20
147.300052659062
 30
0.0
 11
536.66435385939
 21
147.300052659062
 31
0.0
  0
LINE
  5
1BF
330
1B9
100
AcDbEntity
  8
PROFILE
  6
AUSGEZOGEN
 62
     5
420
      255
370
    18
100
AcDbLine
 10
590.30831201133
 20
145.300052659062
 30
0.0
 11
590.30831201133
 21
149.300052659062
 31
0.0
  0
LINE
  5
1C0
330
1B9
100
AcDbEntity
  8
PROFILE
  6
AUSGEZOGEN
 62
     5
420
      255
370
    18
100
AcDbLine
 10
533.16435385939
 20
145.300052659062
 30
0.0
 11
533.16435385939
 21
149.300052659062
 31
0.0
  0
WIPEOUT
  5
1C1
330
1B9
100
AcDbEntity
  8
PROFILE
  6
AUSGEZOGEN
 62
     5
420
      255
370
    18
 92
      308
310
34010000070000000C0000000E000000120000000C00000016000000000000C20C00000014000000010000006C0000000700000004000000846F3ACD455A81405D1E6F6E006862400000000000000000EAD568D11BC781405D1E6F6E006862400000000000000000EAD568D11BC781409051A2A1331B634000000000000000
310
00846F3ACD455A81409051A2A1331B634000000000000000000C0000000E000000050000000C00000016000000FF0000C2840000000600000005000000846F3ACD455A81405D1E6F6E006862400000000000000000EAD568D11BC781405D1E6F6E006862400000000000000000EAD568D11BC781409051A2A1331B63400000
310
000000000000846F3ACD455A81409051A2A1331B63400000000000000000846F3ACD455A81405D1E6F6E006862400000000000000000
100
AcDbWipeout
 90
        0
 10
555.284082848099
 20
147.250052659062
 30
0.0
 11
13.60450016260143
 21
0.0
 31
0.0
 12
0.0
 22
13.60450016260143
 32
0.0
 13
1.0
 23
1.0
340
0
 70
     7
280
     1
281
    50
282
    50
283
     0
360
0
 71
     2
 91
        5
 14
-0.5
 24
0.5
 14
0.5
 24
0.5
 14
0.5
 24
0.088371499646
 14
-0.5
 24
0.088371499646
 14
-0.5
 24
0.5
  0
TEXT
  5
1C2
330
1B9
100
AcDbEntity
  8
PROFILE
  6
AUSGEZOGEN
 62
     5
420
      255
370
    18
100
AcDbText
 10
555.284082848099
 20
148.300052659062
 30
0.0
 40
3.5
  1
2.25
 41
1.357511064015
  7
Arial
 72
     5
 11
568.188583022621
 21
148.300052659062
 31
0.0
100
AcDbText
  0
ENDBLK
  5
1BB
330
1B9
100
AcDbEntity
  8
0
100
AcDbBlockEnd
  0
BLOCK
  5
1C7
330
1C6
100
AcDbEntity
  8
0
100
AcDbBlockBegin
  2
DimBlk_nNn02
 70
     0
 10
0.0
 20
0.0
 30
0.0
  3
DimBlk_nNn02
  1
DimBlk_nNn02
  0
LWPOLYLINE
  5
1C9
330
1C6
100
AcDbEntity
  8
PROFILE
  6
AUSGEZOGEN
 62
     5
420
      255
370
    18
100
AcDbPolyline
 90
        3
 70
     1
 43
0.0
 10
510.851413946459
 20
124.773623495751
 10
511.726413946459
 20
128.273623495751
 10
509.976413946459
 20
128.273623495751
  0
LWPOLYLINE
  5
1CA
330
1C6
100
AcDbEntity
  8
PROFILE
  6
AUSGEZOGEN
 62
     5
420
      255
370
    18
100
AcDbPolyline
 90
        3
 70
     1
 43
0.0
 10
510.851413946459
 20
143.829303000469
 10
509.976413946459
 20
140.329303000469
 10
511.726413946459
 20
140.329303000469
  0
LINE
  5
1CB
330
1C6
100
AcDbEntity
  8
PROFILE
  6
AUSGEZOGEN
 62
     5
420
      255
370
    18
100
AcDbLine
 10
510.851413946459
 20
140.329303000469
 30
0.0
 11
510.851413946459
 21
128.273623495751
 31
0.0
  0
LINE
  5
1CC
330
1C6
100
AcDbEntity
  8
PROFILE
  6
AUSGEZOGEN
 62
     5
420
      255
370
    18
100
AcDbLine
 10
512.851413946459
 20
143.829303000469
 30
0.0
 11
508.851413946459
 21
143.829303000469
 31
0.0
  0
LINE
  5
1CD
330
1C6
100
AcDbEntity
  8
PROFILE
  6
AUSGEZOGEN
 62
     5
420
      255
370
    18
100
AcDbLine
 10
512.851413946459
 20
124.773623495751
 30
0.0
 11
508.851413946459
 21
124.773623495751
 31
0.0
  0
WIPEOUT
  5
1CE
330
1C6
100
AcDbEntity
  8
PROFILE
  6
AUSGEZOGEN
 62
     5
420
      255
370
    18
 92
      308
310
34010000070000000C0000000E000000120000000C00000016000000000000C20C00000014000000010000006C000000070000000400000036C307316CEE7F40724B288259F65F40000000000000000036C307316CEE7F4053BFCDD184AE614000000000000000009C296E97D2947F4053BFCDD184AE614000000000000000
310
009C296E97D2947F40724B288259F65F4000000000000000000C0000000E000000050000000C00000016000000FF0000C284000000060000000500000036C307316CEE7F40724B288259F65F40000000000000000036C307316CEE7F4053BFCDD184AE614000000000000000009C296E97D2947F4053BFCDD184AE61400000
310
0000000000009C296E97D2947F40724B288259F65F40000000000000000036C307316CEE7F40724B288259F65F400000000000000000
100
AcDbWipeout
 90
        0
 10
505.301413946459
 20
127.849213160849
 30
0.0
 11
13.60450016260148
 21
0.0
 31
0.0
 12
0.0
 22
13.60450016260148
 32
0.0
 13
1.0
 23
1.0
340
0
 70
     7
280
     1
281
    50
282
    50
283
     0
360
0
 71
     2
 91
        5
 14
-0.088371499646
 24
0.5
 14
-0.088371499646
 24
-0.5
 14
-0.5
 24
-0.5
 14
-0.5
 24
0.5
 14
-0.088371499646
 24
0.5
  0
TEXT
  5
1CF
330
1C6
100
AcDbEntity
  8
PROFILE
  6
AUSGEZOGEN
 62
     5
420
      255
370
    18
100
AcDbText
 10
509.851413946459
 20
127.849213160849
 30
0.0
 40
3.5
  1
0.75
 50
90.0
 41
1.357511064015
  7
Arial
 72
     5
 11
509.851413946459
 21
140.753713335371
 31
0.0
100
AcDbText
  0
ENDBLK
  5
1C8
330
1C6
100
AcDbEntity
  8
0
100
AcDbBlockEnd
  0
BLOCK
  5
1D2
330
1D1
100
AcDbEntity
  8
0
100
AcDbBlockBegin
  2
DimBlk_nNn03
 70
     0
 10
0.0
 20
0.0
 30
0.0
  3
DimBlk_nNn03
  1
DimBlk_nNn03
  0
LWPOLYLINE
  5
1D4
330
1D1
100
AcDbEntity
  8
PROFILE
  6
AUSGEZOGEN
 62
     7
420
 16777215
370
    18
100
AcDbPolyline
 90
        3
 70
     1
 43
0.0
 10
587.336144354402
 20
136.078719541152
 10
589.192299655017
 20
132.985127373461
 10
590.429736522094
 20
134.222564240537
  0
WIPEOUT
  5
1D5
330
1D1
100
AcDbEntity
  8
PROFILE
  6
AUSGEZOGEN
 62
     7
420
 16777215
370
    18
 92
      308
310
34010000070000000C0000000E000000120000000C00000016000000000000C20C00000014000000010000006C00000007000000040000002C55B18D2C6D824096CA26E8CCF95F400000000000000000F8218E584EF8824096CA26E8CCF95F400000000000000000F8218E584EF882407E9846A719B0604000000000000000
310
002C55B18D2C6D82407E9846A719B0604000000000000000000C0000000E000000070000000C00000016000000FFFFFFC28400000006000000050000002C55B18D2C6D824096CA26E8CCF95F400000000000000000F8218E584EF8824096CA26E8CCF95F400000000000000000F8218E584EF882407E9846A719B060400000
310
0000000000002C55B18D2C6D82407E9846A719B0604000000000000000002C55B18D2C6D824096CA26E8CCF95F400000000000000000
100
AcDbWipeout
 90
        0
 10
589.646754632389
 20
127.903131521113
 30
0.0
 11
17.39150021076205
 21
0.0
 31
0.0
 12
0.0
 22
17.39150021076205
 32
0.0
 13
1.0
 23
1.0
340
0
 70
     7
280
     1
281
    50
282
    50
283
     0
360
0
 71
     2
 91
        5
 14
-0.5
 24
0.5
 14
0.5
 24
0.5
 14
0.5
 24
0.178003626361
 14
-0.5
 24
0.178003626361
 14
-0.5
 24
0.5
  0
TEXT
  5
1D6
330
1D1
100
AcDbEntity
  8
PROFILE
  6
AUSGEZOGEN
 62
     7
420
 16777215
370
    18
100
AcDbText
 10
589.646754632389
 20
128.953131521113
 30
0.0
 40
3.5
  1
0.187
 41
1.36569303082
  7
Arial
 72
     5
 11
606.338254855072
 21
128.953131521113
 31
0.0
100
AcDbText
  0
LINE
  5
1D7
330
1D1
100
AcDbEntity
  8
PROFILE
  6
AUSGEZOGEN
 62
     7
420
 16777215
370
    18
100
AcDbLine
 10
595.461732374441
 20
127.953131521113
 30
0.0
 11
589.296754638349
 21
127.953131521113
 31
0.0
  0
ENDBLK
  5
1D3
330
1D1
100
AcDbEntity
  8
0
100
AcDbBlockEnd
  0
BLOCK
  5
1DA
330
1D9
100
AcDbEntity
  8
0
100
AcDbBlockBegin
  2
DimBlk_nNn04
 70
     0
 10
0.0
 20
0.0
 30
0.0
  3
DimBlk_nNn04
  1
DimBlk_nNn04
  0
LWPOLYLINE
  5
1DC
330
1D9
100
AcDbEntity
  8
PROFILE
  6
AUSGEZOGEN
 62
     7
420
 16777215
370
    18
100
AcDbPolyline
 90
        3
 70
     1
 43
0.0
 10
579.832514895717
 20
130.397563186369
 10
581.483485765493
 20
133.605353732392
 10
579.779705406214
 20
134.00489407746
  0
LINE
  5
1DD
330
1D9
100
AcDbEntity
  8
PROFILE
  6
AUSGEZOGEN
 62
     7
420
 16777215
370
    18
100
AcDbLine
 10
580.631595585854
 20
133.805123904926
 30
0.0
 11
580.897345535321
 21
134.938375027049
 31
0.0
  0
WIPEOUT
  5
1DE
330
1D9
100
AcDbEntity
  8
PROFILE
  6
AUSGEZOGEN
 62
     7
420
 16777215
370
    18
 92
      308
310
34010000070000000C0000000E000000120000000C00000016000000000000C20C00000014000000010000006C000000070000000400000046F2D354C4BA81403FF876916DF46040000000000000000012BFB01FE64582403FF876916DF46040000000000000000012BFB01FE6458240722BAAC4A0A7614000000000000000
310
0046F2D354C4BA8140722BAAC4A0A7614000000000000000000C0000000E000000070000000C00000016000000FFFFFFC284000000060000000500000046F2D354C4BA81403FF876916DF46040000000000000000012BFB01FE64582403FF876916DF46040000000000000000012BFB01FE6458240722BAAC4A0A761400000
310
00000000000046F2D354C4BA8140722BAAC4A0A76140000000000000000046F2D354C4BA81403FF876916DF460400000000000000000
100
AcDbWipeout
 90
        0
 10
567.345864921409
 20
135.638375027049
 30
0.0
 11
17.39150021076205
 21
0.0
 31
0.0
 12
0.0
 22
17.39150021076205
 32
0.0
 13
1.0
 23
1.0
340
0
 70
     7
280
     1
281
    50
282
    50
283
     0
360
0
 71
     2
 91
        5
 14
-0.5
 24
0.5
 14
0.5
 24
0.5
 14
0.5
 24
0.178003626361
 14
-0.5
 24
0.178003626361
 14
-0.5
 24
0.5
  0
TEXT
  5
1DF
330
1D9
100
AcDbEntity
  8
PROFILE
  6
AUSGEZOGEN
 62
     7
420
 16777215
370
    18
100
AcDbText
 10
567.345864921409
 20
136.688375027049
 30
0.0
 40
3.5
  1
0.094
 41
1.36569303082
  7
Arial
 72
     5
 11
584.037365144092
 21
136.688375027049
 31
0.0
100
AcDbText
  0
LINE
  5
1E0
330
1D9
100
AcDbEntity
  8
PROFILE
  6
AUSGEZOGEN
 62
     7
420
 16777215
370
    18
100
AcDbLine
 10
581.073222230442
 20
135.688375027049
 30
0.0
 11
566.995864927369
 21
135.688375027049
 31
0.0
  0
ENDBLK
  5
1DB
330
1D9
100
AcDbEntity
  8
0
100
AcDbBlockEnd
  0
BLOCK
  5
1E3
330
1E2
100
AcDbEntity
  8
0
100
AcDbBlockBegin
  2
DimBlk_nNn05
 70
     0
 10
0.0
 20
0.0
 30
0.0
  3
DimBlk_nNn05
  1
DimBlk_nNn05
  0
LWPOLYLINE
  5
1E5
330
1E2
100
AcDbEntity
  8
PROFILE
  6
AUSGEZOGEN
 62
     7
420
 16777215
370
    18
100
AcDbPolyline
 90
        3
 70
     1
 43
0.0
 10
572.419852430999
 20
131.382918936182
 10
573.042936653135
 20
127.829414883543
 10
574.641869828243
 20
128.540690288388
  0
LINE
  5
1E6
330
1E2
100
AcDbEntity
  8
PROFILE
  6
AUSGEZOGEN
 62
     7
420
 16777215
370
    18
100
AcDbLine
 10
573.842403240689
 20
128.185052585965
 30
0.0
 11
574.406796352225
 21
126.916307928564
 31
0.0
  0
WIPEOUT
  5
1E7
330
1E2
100
AcDbEntity
  8
PROFILE
  6
AUSGEZOGEN
 62
     7
420
 16777215
370
    18
 92
      308
310
34010000070000000C0000000E000000120000000C00000016000000000000C20C00000014000000010000006C0000000700000004000000C0F0DB92DED38140AC5CCF9671275E4000000000000000008CBDB85D005F8240AC5CCF9671275E4000000000000000008CBDB85D005F824012C335FDD78D5F4000000000000000
310
00C0F0DB92DED3814012C335FDD78D5F4000000000000000000C0000000E000000070000000C00000016000000FFFFFFC2840000000600000005000000C0F0DB92DED38140AC5CCF9671275E4000000000000000008CBDB85D005F8240AC5CCF9671275E4000000000000000008CBDB85D005F824012C335FDD78D5F400000
310
000000000000C0F0DB92DED3814012C335FDD78D5F400000000000000000C0F0DB92DED38140AC5CCF9671275E400000000000000000
100
AcDbWipeout
 90
        0
 10
570.483678549084
 20
120.616307928564
 30
0.0
 11
17.39150021076205
 21
0.0
 31
0.0
 12
0.0
 22
17.39150021076205
 32
0.0
 13
1.0
 23
1.0
340
0
 70
     7
280
     1
281
    50
282
    50
283
     0
360
0
 71
     2
 91
        5
 14
-0.5
 24
0.5
 14
0.5
 24
0.5
 14
0.5
 24
0.178003626361
 14
-0.5
 24
0.178003626361
 14
-0.5
 24
0.5
  0
TEXT
  5
1E8
330
1E2
100
AcDbEntity
  8
PROFILE
  6
AUSGEZOGEN
 62
     7
420
 16777215
370
    18
100
AcDbText
 10
570.483678549084
 20
121.666307928564
 30
0.0
 40
3.5
  1
0.563
 41
1.36569303082
  7
Arial
 72
     5
 11
587.175178771767
 21
121.666307928564
 31
0.0
100
AcDbText
  0
LINE
  5
1E9
330
1E2
100
AcDbEntity
  8
PROFILE
  6
AUSGEZOGEN
 62
     7
420
 16777215
370
    18
100
AcDbLine
 10
577.187069692904
 20
120.666307928564
 30
0.0
 11
570.133678555045
 21
120.666307928564
 31
0.0
  0
ENDBLK
  5
1E4
330
1E2
100
AcDbEntity
  8
0
100
AcDbBlockEnd
  0
BLOCK
  5
1EC
330
1EB
100
AcDbEntity
  8
0
100
AcDbBlockBegin
  2
DimBlk_nNn06
 70
     0
 10
0.0
 20
0.0
 30
0.0
  3
DimBlk_nNn06
  1
DimBlk_nNn06
  0
LWPOLYLINE
  5
1EE
330
1EB
100
AcDbEntity
  8
PROFILE
  6
AUSGEZOGEN
 62
     7
420
 16777215
370
    18
100
AcDbPolyline
 90
        3
 70
     1
 43
0.0
 10
562.861055908266
 20
125.598691616583
 10
563.372329077018
 20
129.169997364754
 10
561.631564822732
 20
128.990442885558
  0
LINE
  5
1EF
330
1EB
100
AcDbEntity
  8
PROFILE
  6
AUSGEZOGEN
 62
     7
420
 16777215
370
    18
100
AcDbLine
 10
562.501946949875
 20
129.080220125156
 30
0.0
 11
561.990202558155
 21
134.041535200274
 31
0.0
  0
WIPEOUT
  5
1F0
330
1EB
100
AcDbEntity
  8
PROFILE
  6
AUSGEZOGEN
 62
     7
420
 16777215
370
    18
 92
      308
310
34010000070000000C0000000E000000120000000C00000016000000000000C20C00000014000000010000006C0000000700000004000000E2D66C5E41238140414007A8BAD760400000000000000000AEA3492963AE8140414007A8BAD760400000000000000000AEA3492963AE814074733ADBED8A614000000000000000
310
00E2D66C5E4123814074733ADBED8A614000000000000000000C0000000E000000070000000C00000016000000FFFFFFC2840000000600000005000000E2D66C5E41238140414007A8BAD760400000000000000000AEA3492963AE8140414007A8BAD760400000000000000000AEA3492963AE814074733ADBED8A61400000
310
000000000000E2D66C5E4123814074733ADBED8A61400000000000000000E2D66C5E41238140414007A8BAD760400000000000000000
100
AcDbWipeout
 90
        0
 10
548.406918382938
 20
134.741535200274
 30
0.0
 11
17.39150021076205
 21
0.0
 31
0.0
 12
0.0
 22
17.39150021076205
 32
0.0
 13
1.0
 23
1.0
340
0
 70
     7
280
     1
281
    50
282
    50
283
     0
360
0
 71
     2
 91
        5
 14
-0.5
 24
0.5
 14
0.5
 24
0.5
 14
0.5
 24
0.178003626361
 14
-0.5
 24
0.178003626361
 14
-0.5
 24
0.5
  0
TEXT
  5
1F1
330
1EB
100
AcDbEntity
  8
PROFILE
  6
AUSGEZOGEN
 62
     7
420
 16777215
370
    18
100
AcDbText
 10
548.406918382938
 20
135.791535200274
 30
0.0
 40
3.5
  1
0.281
 41
1.36569303082
  7
Arial
 72
     5
 11
565.098418605621
 21
135.791535200274
 31
0.0
100
AcDbText
  0
LINE
  5
1F2
330
1EB
100
AcDbEntity
  8
PROFILE
  6
AUSGEZOGEN
 62
     7
420
 16777215
370
    18
100
AcDbLine
 10
561.912842364743
 20
134.791535200274
 30
0.0
 11
548.056918388899
 21
134.791535200274
 31
0.0
  0
ENDBLK
  5
1ED
330
1EB
100
AcDbEntity
  8
0
100
AcDbBlockEnd
  0
BLOCK
  5
1F5
330
1F4
100
AcDbEntity
  8
0
100
AcDbBlockBegin
  2
DimBlk_nNn07
 70
     0
 10
0.0
 20
0.0
 30
0.0
  3
DimBlk_nNn07
  1
DimBlk_nNn07
  0
LWPOLYLINE
  5
1F7
330
1F4
100
AcDbEntity
  8
PROFILE
  6
AUSGEZOGEN
 62
     7
420
 16777215
370
    18
100
AcDbPolyline
 90
        3
 70
     1
 43
0.0
 10
546.540296415512
 20
127.226517766345
 10
549.089707745328
 20
124.673847229162
 10
549.991033724024
 20
126.173884388744
  0
LINE
  5
1F8
330
1F4
100
AcDbEntity
  8
PROFILE
  6
AUSGEZOGEN
 62
     7
420
 16777215
370
    18
100
AcDbLine
 10
549.540370734676
 20
125.423865808953
 30
0.0
 11
551.720849541316
 21
124.113683469891
 31
0.0
  0
WIPEOUT
  5
1F9
330
1F4
100
AcDbEntity
  8
PROFILE
  6
AUSGEZOGEN
 62
     7
420
 16777215
370
    18
 92
      308
310
34010000070000000C0000000E000000120000000C00000016000000000000C20C00000014000000010000006C0000000700000004000000E2B32D9E41098140B41ED56313745D400000000000000000AE800A6963948140B41ED56313745D400000000000000000AE800A69639481401A853BCA79DA5E4000000000000000
310
00E2B32D9E410981401A853BCA79DA5E4000000000000000000C0000000E000000070000000C00000016000000FFFFFFC2840000000600000005000000E2B32D9E41098140B41ED56313745D400000000000000000AE800A6963948140B41ED56313745D400000000000000000AE800A69639481401A853BCA79DA5E400000
310
000000000000E2B32D9E410981401A853BCA79DA5E400000000000000000E2B32D9E41098140B41ED56313745D400000000000000000
100
AcDbWipeout
 90
        0
 10
545.157039982845
 20
117.813683469891
 30
0.0
 11
17.39150021076205
 21
0.0
 31
0.0
 12
0.0
 22
17.39150021076205
 32
0.0
 13
1.0
 23
1.0
340
0
 70
     7
280
     1
281
    50
282
    50
283
     0
360
0
 71
     2
 91
        5
 14
-0.5
 24
0.5
 14
0.5
 24
0.5
 14
0.5
 24
0.178003626361
 14
-0.5
 24
0.178003626361
 14
-0.5
 24
0.5
  0
TEXT
  5
1FA
330
1F4
100
AcDbEntity
  8
PROFILE
  6
AUSGEZOGEN
 62
     7
420
 16777215
370
    18
100
AcDbText
 10
545.157039982845
 20
118.863683469891
 30
0.0
 40
3.5
  1
0.187
 41
1.36569303082
  7
Arial
 72
     5
 11
561.848540205528
 21
118.863683469891
 31
0.0
100
AcDbText
  0
LINE
  5
1FB
330
1F4
100
AcDbEntity
  8
PROFILE
  6
AUSGEZOGEN
 62
     7
420
 16777215
370
    18
100
AcDbLine
 10
562.122449482941
 20
117.863683469891
 30
0.0
 11
544.807039988806
 21
117.863683469891
 31
0.0
  0
ENDBLK
  5
1F6
330
1F4
100
AcDbEntity
  8
0
100
AcDbBlockEnd
  0
BLOCK
  5
206
330
205
100
AcDbEntity
  8
0
100
AcDbBlockBegin
  2
DimBlk_nNn08
 70
     0
 10
0.0
 20
0.0
 30
0.0
  3
DimBlk_nNn08
  1
DimBlk_nNn08
  0
LINE
  5
208
330
205
100
AcDbEntity
  8
PROFILE
  6
AUSGEZOGEN
 62
     7
420
 16777215
370
    18
100
AcDbLine
 10
534.75185385939
 20
126.361123495751
 30
0.0
 11
533.629321844257
 21
125.238591480617
 31
0.0
  0
LWPOLYLINE
  5
209
330
205
100
AcDbEntity
  8
PROFILE
  6
AUSGEZOGEN
 62
     7
420
 16777215
370
    18
100
AcDbPolyline
 90
        3
 70
     1
 43
0.0
 10
533.629321844257
 20
125.238591480617
 10
530.535729676566
 20
123.382436180002
 10
531.773166543642
 20
122.144999312926
  0
LINE
  5
20A
330
205
100
AcDbEntity
  8
PROFILE
  6
AUSGEZOGEN
 62
     7
420
 16777215
370
    18
100
AcDbLine
 10
531.154448110104
 20
122.763717746464
 30
0.0
 11
531.005164906364
 21
122.614434542724
 31
0.0
  0
WIPEOUT
  5
20B
330
205
100
AcDbEntity
  8
PROFILE
  6
AUSGEZOGEN
 62
     7
420
 16777215
370
    18
 92
      308
310
34010000070000000C0000000E000000120000000C00000016000000000000C20C00000014000000010000006C0000000700000004000000C49CD4BD14588040EA6E0FB21F145D4000000000000000009069B18836E38040EA6E0FB21F145D4000000000000000009069B18836E3804050D57518867A5E4000000000000000
310
00C49CD4BD1458804050D57518867A5E4000000000000000000C0000000E000000070000000C00000016000000FFFFFFC2840000000600000005000000C49CD4BD14588040EA6E0FB21F145D4000000000000000009069B18836E38040EA6E0FB21F145D4000000000000000009069B18836E3804050D57518867A5E400000
310
000000000000C49CD4BD1458804050D57518867A5E400000000000000000C49CD4BD14588040EA6E0FB21F145D400000000000000000
100
AcDbWipeout
 90
        0
 10
523.010127697977
 20
116.314434542724
 30
0.0
 11
17.39150021076205
 21
0.0
 31
0.0
 12
0.0
 22
17.39150021076205
 32
0.0
 13
1.0
 23
1.0
340
0
 70
     7
280
     1
281
    50
282
    50
283
     0
360
0
 71
     2
 91
        5
 14
-0.5
 24
0.5
 14
0.5
 24
0.5
 14
0.5
 24
0.178003626361
 14
-0.5
 24
0.178003626361
 14
-0.5
 24
0.5
  0
TEXT
  5
20C
330
205
100
AcDbEntity
  8
PROFILE
  6
AUSGEZOGEN
 62
     7
420
 16777215
370
    18
100
AcDbText
 10
523.010127697977
 20
117.364434542724
 30
0.0
 40
3.5
  1
0.062
 41
1.36569303082
  7
Arial
 72
     5
 11
539.70162792066
 21
117.364434542724
 31
0.0
100
AcDbText
  0
LINE
  5
20D
330
205
100
AcDbEntity
  8
PROFILE
  6
AUSGEZOGEN
 62
     7
420
 16777215
370
    18
100
AcDbLine
 10
524.755164906364
 20
116.364434542724
 30
0.0
 11
522.660127703938
 21
116.364434542724
 31
0.0
  0
ENDBLK
  5
207
330
205
100
AcDbEntity
  8
0
100
AcDbBlockEnd
  0
BLOCK
  5
212
330
211
100
AcDbEntity
  8
0
100
AcDbBlockBegin
  2
DimBlk_nNn09
 70
     0
 10
0.0
 20
0.0
 30
0.0
  3
DimBlk_nNn09
  1
DimBlk_nNn09
  0
LWPOLYLINE
  5
214
330
211
100
AcDbEntity
  8
PROFILE
  6
AUSGEZOGEN
 62
     5
420
      255
370
    18
100
AcDbPolyline
 90
        3
 70
     1
 43
0.0
 10
616.770757099245
 20
140.648623495751
 10
615.895757099245
 20
137.148623495751
 10
617.645757099245
 20
137.148623495751
  0
LWPOLYLINE
  5
215
330
211
100
AcDbEntity
  8
PROFILE
  6
AUSGEZOGEN
 62
     5
420
      255
370
    18
100
AcDbPolyline
 90
        3
 70
     1
 43
0.0
 10
616.770757099245
 20
124.773623495751
 10
617.645757099245
 20
128.273623495751
 10
615.895757099245
 20
128.273623495751
  0
LINE
  5
216
330
211
100
AcDbEntity
  8
PROFILE
  6
AUSGEZOGEN
 62
     5
420
      255
370
    18
100
AcDbLine
 10
616.770757099245
 20
128.273623495751
 30
0.0
 11
616.770757099245
 21
137.148623495751
 31
0.0
  0
LINE
  5
217
330
211
100
AcDbEntity
  8
PROFILE
  6
AUSGEZOGEN
 62
     5
420
      255
370
    18
100
AcDbLine
 10
614.770757099245
 20
124.773623495751
 30
0.0
 11
618.770757099245
 21
124.773623495751
 31
0.0
  0
LINE
  5
218
330
211
100
AcDbEntity
  8
PROFILE
  6
AUSGEZOGEN
 62
     5
420
      255
370
    18
100
AcDbLine
 10
614.770757099245
 20
140.648623495751
 30
0.0
 11
618.770757099245
 21
140.648623495751
 31
0.0
  0
WIPEOUT
  5
219
330
211
100
AcDbEntity
  8
PROFILE
  6
AUSGEZOGEN
 62
     5
420
      255
370
    18
 92
      308
310
34010000070000000C0000000E000000120000000C00000016000000000000C20C00000014000000010000006C0000000700000004000000BE1919E9904683407D370C4762175F400000000000000000BE1919E990468340F24EF94E38B861400000000000000000F14C4C1CC4198340F24EF94E38B8614000000000000000
310
00F14C4C1CC41983407D370C4762175F4000000000000000000C0000000E000000050000000C00000016000000FF0000C2840000000600000005000000BE1919E9904683407D370C4762175F400000000000000000BE1919E990468340F24EF94E38B861400000000000000000F14C4C1CC4198340F24EF94E38B861400000
310
000000000000F14C4C1CC41983407D370C4762175F400000000000000000BE1919E9904683407D370C4762175F400000000000000000
100
AcDbWipeout
 90
        0
 10
611.220757099245
 20
124.365373384409
 30
0.0
 11
17.39150021076202
 21
0.0
 31
0.0
 12
0.0
 22
17.39150021076202
 32
0.0
 13
1.0
 23
1.0
340
0
 70
     7
280
     1
281
    50
282
    50
283
     0
360
0
 71
     2
 91
        5
 14
-0.178003626361
 24
0.5
 14
-0.178003626361
 24
-0.5
 14
-0.5
 24
-0.5
 14
-0.5
 24
0.5
 14
-0.178003626361
 24
0.5
  0
TEXT
  5
21A
330
211
100
AcDbEntity
  8
PROFILE
  6
AUSGEZOGEN
 62
     5
420
      255
370
    18
100
AcDbText
 10
615.770757099245
 20
124.365373384409
 30
0.0
 40
3.5
  1
0.625
 50
90.0
 41
1.36569303082
  7
Arial
 72
     5
 11
615.770757099245
 21
141.056873607092
 31
0.0
100
AcDbText
  0
ENDBLK
  5
213
330
211
100
AcDbEntity
  8
0
100
AcDbBlockEnd
  0
BLOCK
  5
292
330
291
100
AcDbEntity
  8
0
100
AcDbBlockBegin
  2
*X11
 70
     1
 10
0.0
 20
0.0
 30
0.0
  3
*X11
  1
*X11
  0
LINE
  5
294
330
291
100
AcDbEntity
  8
PROFILE
  6
AUSGEZOGEN
 62
    16
420
  8388608
370
    18
100
AcDbLine
 10
621.499805798858
 20
174.838499125367
 30
0.0
 11
621.197231729469
 21
175.141073194756
 31
0.0
  0
LINE
  5
295
330
291
100
AcDbEntity
  8
PROFILE
  6
AUSGEZOGEN
 62
    16
420
  8388608
370
    18
100
AcDbLine
 10
620.818424525262
 20
175.519880398963
 30
0.0
 11
620.818424525262
 21
175.519880398963
 31
0.0
  0
LINE
  5
296
330
291
100
AcDbEntity
  8
PROFILE
  6
AUSGEZOGEN
 62
    16
420
  8388608
370
    18
100
AcDbLine
 10
622.901864148401
 20
174.951669592653
 30
0.0
 11
622.901864148401
 21
174.951669592653
 31
0.0
  0
LINE
  5
297
330
291
100
AcDbEntity
  8
PROFILE
  6
AUSGEZOGEN
 62
    16
420
  8388608
370
    18
100
AcDbLine
 10
622.523056944194
 20
175.33047679686
 30
0.0
 11
620.639539798522
 21
177.213993942532
 31
0.0
  0
LINE
  5
298
330
291
100
AcDbEntity
  8
PROFILE
  6
AUSGEZOGEN
 62
    16
420
  8388608
370
    18
100
AcDbLine
 10
624.530263432514
 20
174.838499125367
 30
0.0
 11
622.712460546297
 21
176.656302011585
 31
0.0
  0
LINE
  5
299
330
291
100
AcDbEntity
  8
PROFILE
  6
AUSGEZOGEN
 62
    16
420
  8388608
370
    18
100
AcDbLine
 10
622.33365334209
 20
177.035109215792
 30
0.0
 11
622.33365334209
 21
177.035109215792
 31
0.0
  0
LINE
  5
29A
330
291
100
AcDbEntity
  8
PROFILE
  6
AUSGEZOGEN
 62
    16
420
  8388608
370
    18
100
AcDbLine
 10
621.954846137883
 20
177.413916419999
 30
0.0
 11
621.808834861086
 21
177.559927696796
 31
0.0
  0
LINE
  5
29B
330
291
100
AcDbEntity
  8
PROFILE
  6
AUSGEZOGEN
 62
    16
420
  8388608
370
    18
100
AcDbLine
 10
626.045492249343
 20
174.838499125367
 30
0.0
 11
624.795900169436
 21
176.088091205274
 31
0.0
  0
LINE
  5
29C
330
291
100
AcDbEntity
  8
PROFILE
  6
AUSGEZOGEN
 62
    16
420
  8388608
370
    18
100
AcDbLine
 10
624.417092965229
 20
176.466898409481
 30
0.0
 11
624.417092965229
 21
176.466898409481
 31
0.0
  0
LINE
  5
29D
330
291
100
AcDbEntity
  8
PROFILE
  6
AUSGEZOGEN
 62
    16
420
  8388608
370
    18
100
AcDbLine
 10
624.038285761022
 20
176.845705613688
 30
0.0
 11
623.324063677914
 21
177.559927696796
 31
0.0
  0
LINE
  5
29E
330
291
100
AcDbEntity
  8
PROFILE
  6
AUSGEZOGEN
 62
    16
420
  8388608
370
    18
100
AcDbLine
 10
627.560721066171
 20
174.838499125367
 30
0.0
 11
626.879339792575
 21
175.519880398963
 31
0.0
  0
LINE
  5
29F
330
291
100
AcDbEntity
  8
PROFILE
  6
AUSGEZOGEN
 62
    16
420
  8388608
370
    18
100
AcDbLine
 10
626.500532588368
 20
175.89868760317
 30
0.0
 11
626.500532588368
 21
175.89868760317
 31
0.0
  0
LINE
  5
2A0
330
291
100
AcDbEntity
  8
PROFILE
  6
AUSGEZOGEN
 62
    16
420
  8388608
370
    18
100
AcDbLine
 10
626.121725384161
 20
176.277494807378
 30
0.0
 11
624.839292494742
 21
177.559927696796
 31
0.0
  0
LINE
  5
2A1
330
291
100
AcDbEntity
  8
PROFILE
  6
AUSGEZOGEN
 62
    16
420
  8388608
370
    18
100
AcDbLine
 10
629.075949882999
 20
174.838499125367
 30
0.0
 11
628.962779415714
 21
174.951669592653
 31
0.0
  0
LINE
  5
2A2
330
291
100
AcDbEntity
  8
PROFILE
  6
AUSGEZOGEN
 62
    16
420
  8388608
370
    18
100
AcDbLine
 10
628.583972211507
 20
175.33047679686
 30
0.0
 11
628.583972211507
 21
175.33047679686
 31
0.0
  0
LINE
  5
2A3
330
291
100
AcDbEntity
  8
PROFILE
  6
AUSGEZOGEN
 62
    16
420
  8388608
370
    18
100
AcDbLine
 10
628.2051650073
 20
175.709284001067
 30
0.0
 11
626.354521311571
 21
177.559927696796
 31
0.0
  0
LINE
  5
2A4
330
291
100
AcDbEntity
  8
PROFILE
  6
AUSGEZOGEN
 62
    16
420
  8388608
370
    18
100
AcDbLine
 10
630.288604630439
 20
175.141073194756
 30
0.0
 11
628.394568609403
 21
177.035109215792
 31
0.0
  0
LINE
  5
2A5
330
291
100
AcDbEntity
  8
PROFILE
  6
AUSGEZOGEN
 62
    16
420
  8388608
370
    18
100
AcDbLine
 10
628.015761405196
 20
177.413916419999
 30
0.0
 11
628.015761405196
 21
177.413916419999
 31
0.0
  0
LINE
  5
2A6
330
291
100
AcDbEntity
  8
PROFILE
  6
AUSGEZOGEN
 62
    16
420
  8388608
370
    18
100
AcDbLine
 10
632.106407516656
 20
174.838499125367
 30
0.0
 11
630.478008232542
 21
176.466898409481
 31
0.0
  0
LINE
  5
2A7
330
291
100
AcDbEntity
  8
PROFILE
  6
AUSGEZOGEN
 62
    16
420
  8388608
370
    18
100
AcDbLine
 10
630.099201028335
 20
176.845705613688
 30
0.0
 11
630.099201028335
 21
176.845705613688
 31
0.0
  0
LINE
  5
2A8
330
291
100
AcDbEntity
  8
PROFILE
  6
AUSGEZOGEN
 62
    16
420
  8388608
370
    18
100
AcDbLine
 10
629.720393824128
 20
177.224512817895
 30
0.0
 11
629.384978945227
 21
177.559927696796
 31
0.0
  0
LINE
  5
2A9
330
291
100
AcDbEntity
  8
PROFILE
  6
AUSGEZOGEN
 62
    16
420
  8388608
370
    18
100
AcDbLine
 10
633.621636333484
 20
174.838499125367
 30
0.0
 11
632.561447855681
 21
175.89868760317
 31
0.0
  0
LINE
  5
2AA
330
291
100
AcDbEntity
  8
PROFILE
  6
AUSGEZOGEN
 62
    16
420
  8388608
370
    18
100
AcDbLine
 10
632.182640651474
 20
176.277494807378
 30
0.0
 11
632.182640651474
 21
176.277494807378
 31
0.0
  0
LINE
  5
2AB
330
291
100
AcDbEntity
  8
PROFILE
  6
AUSGEZOGEN
 62
    16
420
  8388608
370
    18
100
AcDbLine
 10
631.803833447267
 20
176.656302011585
 30
0.0
 11
630.900207762056
 21
177.559927696796
 31
0.0
  0
LINE
  5
2AC
330
291
100
AcDbEntity
  8
PROFILE
  6
AUSGEZOGEN
 62
    16
420
  8388608
370
    18
100
AcDbLine
 10
635.136865150312
 20
174.838499125367
 30
0.0
 11
634.64488747882
 21
175.33047679686
 31
0.0
  0
LINE
  5
2AD
330
291
100
AcDbEntity
  8
PROFILE
  6
AUSGEZOGEN
 62
    16
420
  8388608
370
    18
100
AcDbLine
 10
634.266080274613
 20
175.709284001067
 30
0.0
 11
634.266080274613
 21
175.709284001067
 31
0.0
  0
LINE
  5
2AE
330
291
100
AcDbEntity
  8
PROFILE
  6
AUSGEZOGEN
 62
    16
420
  8388608
370
    18
100
AcDbLine
 10
633.887273070406
 20
176.088091205274
 30
0.0
 11
632.415436578884
 21
177.559927696796
 31
0.0
  0
LINE
  5
2AF
330
291
100
AcDbEntity
  8
PROFILE
  6
AUSGEZOGEN
 62
    16
420
  8388608
370
    18
100
AcDbLine
 10
636.349519897752
 20
175.141073194756
 30
0.0
 11
636.349519897752
 21
175.141073194756
 31
0.0
  0
LINE
  5
2B0
330
291
100
AcDbEntity
  8
PROFILE
  6
AUSGEZOGEN
 62
    16
420
  8388608
370
    18
100
AcDbLine
 10
635.970712693545
 20
175.519880398963
 30
0.0
 11
634.076676672509
 21
177.413916419999
 31
0.0
  0
LINE
  5
2B1
330
291
100
AcDbEntity
  8
PROFILE
  6
AUSGEZOGEN
 62
    16
420
  8388608
370
    18
100
AcDbLine
 10
638.054152316684
 20
174.951669592653
 30
0.0
 11
636.160116295648
 21
176.845705613688
 31
0.0
  0
LINE
  5
2B2
330
291
100
AcDbEntity
  8
PROFILE
  6
AUSGEZOGEN
 62
    16
420
  8388608
370
    18
100
AcDbLine
 10
635.781309091441
 20
177.224512817895
 30
0.0
 11
635.781309091441
 21
177.224512817895
 31
0.0
  0
LINE
  5
2B3
330
291
100
AcDbEntity
  8
PROFILE
  6
AUSGEZOGEN
 62
    16
420
  8388608
370
    18
100
AcDbLine
 10
639.682551600797
 20
174.838499125367
 30
0.0
 11
638.243555918787
 21
176.277494807378
 31
0.0
  0
LINE
  5
2B4
330
291
100
AcDbEntity
  8
PROFILE
  6
AUSGEZOGEN
 62
    16
420
  8388608
370
    18
100
AcDbLine
 10
637.86474871458
 20
176.656302011585
 30
0.0
 11
637.86474871458
 21
176.656302011585
 31
0.0
  0
LINE
  5
2B5
330
291
100
AcDbEntity
  8
PROFILE
  6
AUSGEZOGEN
 62
    16
420
  8388608
370
    18
100
AcDbLine
 10
637.485941510373
 20
177.035109215792
 30
0.0
 11
636.961123029369
 21
177.559927696796
 31
0.0
  0
LINE
  5
2B6
330
291
100
AcDbEntity
  8
PROFILE
  6
AUSGEZOGEN
 62
    16
420
  8388608
370
    18
100
AcDbLine
 10
641.197780417626
 20
174.838499125367
 30
0.0
 11
640.326995541926
 21
175.709284001067
 31
0.0
  0
LINE
  5
2B7
330
291
100
AcDbEntity
  8
PROFILE
  6
AUSGEZOGEN
 62
    16
420
  8388608
370
    18
100
AcDbLine
 10
639.948188337719
 20
176.088091205274
 30
0.0
 11
639.948188337719
 21
176.088091205274
 31
0.0
  0
LINE
  5
2B8
330
291
100
AcDbEntity
  8
PROFILE
  6
AUSGEZOGEN
 62
    16
420
  8388608
370
    18
100
AcDbLine
 10
639.569381133512
 20
176.466898409481
 30
0.0
 11
638.476351846197
 21
177.559927696796
 31
0.0
  0
LINE
  5
2B9
330
291
100
AcDbEntity
  8
PROFILE
  6
AUSGEZOGEN
 62
    16
420
  8388608
370
    18
100
AcDbLine
 10
642.713009234454
 20
174.838499125367
 30
0.0
 11
642.410435165065
 21
175.141073194756
 31
0.0
  0
LINE
  5
2BA
330
291
100
AcDbEntity
  8
PROFILE
  6
AUSGEZOGEN
 62
    16
420
  8388608
370
    18
100
AcDbLine
 10
642.031627960858
 20
175.519880398963
 30
0.0
 11
642.031627960858
 21
175.519880398963
 31
0.0
  0
LINE
  5
2BB
330
291
100
AcDbEntity
  8
PROFILE
  6
AUSGEZOGEN
 62
    16
420
  8388608
370
    18
100
AcDbLine
 10
641.652820756651
 20
175.89868760317
 30
0.0
 11
639.991580663026
 21
177.559927696796
 31
0.0
  0
LINE
  5
2BC
330
291
100
AcDbEntity
  8
PROFILE
  6
AUSGEZOGEN
 62
    16
420
  8388608
370
    18
100
AcDbLine
 10
644.115067583997
 20
174.951669592653
 30
0.0
 11
644.115067583997
 21
174.951669592653
 31
0.0
  0
LINE
  5
2BD
330
291
100
AcDbEntity
  8
PROFILE
  6
AUSGEZOGEN
 62
    16
420
  8388608
370
    18
100
AcDbLine
 10
643.73626037979
 20
175.33047679686
 30
0.0
 11
641.842224358755
 21
177.224512817895
 31
0.0
  0
LINE
  5
2BE
330
291
100
AcDbEntity
  8
PROFILE
  6
AUSGEZOGEN
 62
    16
420
  8388608
370
    18
100
AcDbLine
 10
645.743466868111
 20
174.838499125367
 30
0.0
 11
643.925663981893
 21
176.656302011585
 31
0.0
  0
LINE
  5
2BF
330
291
100
AcDbEntity
  8
PROFILE
  6
AUSGEZOGEN
 62
    16
420
  8388608
370
    18
100
AcDbLine
 10
643.546856777686
 20
177.035109215792
 30
0.0
 11
643.546856777686
 21
177.035109215792
 31
0.0
  0
LINE
  5
2C0
330
291
100
AcDbEntity
  8
PROFILE
  6
AUSGEZOGEN
 62
    16
420
  8388608
370
    18
100
AcDbLine
 10
643.168049573479
 20
177.413916419999
 30
0.0
 11
643.022038296682
 21
177.559927696796
 31
0.0
  0
LINE
  5
2C1
330
291
100
AcDbEntity
  8
PROFILE
  6
AUSGEZOGEN
 62
    16
420
  8388608
370
    18
100
AcDbLine
 10
647.258695684939
 20
174.838499125367
 30
0.0
 11
646.009103605032
 21
176.088091205274
 31
0.0
  0
LINE
  5
2C2
330
291
100
AcDbEntity
  8
PROFILE
  6
AUSGEZOGEN
 62
    16
420
  8388608
370
    18
100
AcDbLine
 10
645.630296400825
 20
176.466898409481
 30
0.0
 11
645.630296400825
 21
176.466898409481
 31
0.0
  0
LINE
  5
2C3
330
291
100
AcDbEntity
  8
PROFILE
  6
AUSGEZOGEN
 62
    16
420
  8388608
370
    18
100
AcDbLine
 10
645.251489196618
 20
176.845705613688
 30
0.0
 11
644.53726711351
 21
177.559927696796
 31
0.0
  0
LINE
  5
2C4
330
291
100
AcDbEntity
  8
PROFILE
  6
AUSGEZOGEN
 62
    16
420
  8388608
370
    18
100
AcDbLine
 10
648.773924501767
 20
174.838499125367
 30
0.0
 11
648.092543228171
 21
175.519880398963
 31
0.0
  0
LINE
  5
2C5
330
291
100
AcDbEntity
  8
PROFILE
  6
AUSGEZOGEN
 62
    16
420
  8388608
370
    18
100
AcDbLine
 10
647.713736023964
 20
175.89868760317
 30
0.0
 11
647.713736023964
 21
175.89868760317
 31
0.0
  0
LINE
  5
2C6
330
291
100
AcDbEntity
  8
PROFILE
  6
AUSGEZOGEN
 62
    16
420
  8388608
370
    18
100
AcDbLine
 10
647.334928819757
 20
176.277494807378
 30
0.0
 11
646.052495930339
 21
177.559927696796
 31
0.0
  0
LINE
  5
2C7
330
291
100
AcDbEntity
  8
PROFILE
  6
AUSGEZOGEN
 62
    16
420
  8388608
370
    18
100
AcDbLine
 10
650.289153318596
 20
174.838499125367
 30
0.0
 11
650.17598285131
 21
174.951669592653
 31
0.0
  0
LINE
  5
2C8
330
291
100
AcDbEntity
  8
PROFILE
  6
AUSGEZOGEN
 62
    16
420
  8388608
370
    18
100
AcDbLine
 10
649.797175647103
 20
175.33047679686
 30
0.0
 11
649.797175647103
 21
175.33047679686
 31
0.0
  0
LINE
  5
2C9
330
291
100
AcDbEntity
  8
PROFILE
  6
AUSGEZOGEN
 62
    16
420
  8388608
370
    18
100
AcDbLine
 10
649.418368442896
 20
175.709284001067
 30
0.0
 11
647.567724747167
 21
177.559927696796
 31
0.0
  0
LINE
  5
2CA
330
291
100
AcDbEntity
  8
PROFILE
  6
AUSGEZOGEN
 62
    16
420
  8388608
370
    18
100
AcDbLine
 10
651.501808066035
 20
175.141073194756
 30
0.0
 11
649.607772045
 21
177.035109215792
 31
0.0
  0
LINE
  5
2CB
330
291
100
AcDbEntity
  8
PROFILE
  6
AUSGEZOGEN
 62
    16
420
  8388608
370
    18
100
AcDbLine
 10
649.228964840793
 20
177.413916419999
 30
0.0
 11
649.228964840793
 21
177.413916419999
 31
0.0
  0
LINE
  5
2CC
330
291
100
AcDbEntity
  8
PROFILE
  6
AUSGEZOGEN
 62
    16
420
  8388608
370
    18
100
AcDbLine
 10
653.296682655664
 20
174.861427421955
 30
0.0
 11
651.691211668139
 21
176.466898409481
 31
0.0
  0
LINE
  5
2CD
330
291
100
AcDbEntity
  8
PROFILE
  6
AUSGEZOGEN
 62
    16
420
  8388608
370
    18
100
AcDbLine
 10
651.312404463932
 20
176.845705613688
 30
0.0
 11
651.312404463932
 21
176.845705613688
 31
0.0
  0
LINE
  5
2CE
330
291
100
AcDbEntity
  8
PROFILE
  6
AUSGEZOGEN
 62
    16
420
  8388608
370
    18
100
AcDbLine
 10
650.933597259724
 20
177.224512817895
 30
0.0
 11
650.575254084236
 21
177.582855993384
 31
0.0
  0
LINE
  5
2CF
330
291
100
AcDbEntity
  8
PROFILE
  6
AUSGEZOGEN
 62
    16
420
  8388608
370
    18
100
AcDbLine
 10
653.017036882863
 20
176.656302011585
 30
0.0
 11
651.123000861828
 21
178.55033803262
 31
0.0
  0
LINE
  5
2D0
330
291
100
AcDbEntity
  8
PROFILE
  6
AUSGEZOGEN
 62
    16
420
  8388608
370
    18
100
AcDbLine
 10
650.744193657621
 20
178.929145236827
 30
0.0
 11
650.744193657621
 21
178.929145236827
 31
0.0
  0
LINE
  5
2D1
330
291
100
AcDbEntity
  8
PROFILE
  6
AUSGEZOGEN
 62
    16
420
  8388608
370
    18
100
AcDbLine
 10
653.296682655664
 20
177.891885055612
 30
0.0
 11
653.206440484967
 21
177.982127226309
 31
0.0
  0
LINE
  5
2D2
330
291
100
AcDbEntity
  8
PROFILE
  6
AUSGEZOGEN
 62
    16
420
  8388608
370
    18
100
AcDbLine
 10
652.82763328076
 20
178.360934430516
 30
0.0
 11
652.82763328076
 21
178.360934430516
 31
0.0
  0
LINE
  5
2D3
330
291
100
AcDbEntity
  8
PROFILE
  6
AUSGEZOGEN
 62
    16
420
  8388608
370
    18
100
AcDbLine
 10
652.448826076553
 20
178.739741634724
 30
0.0
 11
650.575254084236
 21
180.61331362704
 31
0.0
  0
LINE
  5
2D4
330
291
100
AcDbEntity
  8
PROFILE
  6
AUSGEZOGEN
 62
    16
420
  8388608
370
    18
100
AcDbLine
 10
653.296682655664
 20
179.40711387244
 30
0.0
 11
652.638229678656
 21
180.065566849448
 31
0.0
  0
LINE
  5
2D5
330
291
100
AcDbEntity
  8
PROFILE
  6
AUSGEZOGEN
 62
    16
420
  8388608
370
    18
100
AcDbLine
 10
652.259422474449
 20
180.444374053655
 30
0.0
 11
652.259422474449
 21
180.444374053655
 31
0.0
  0
LINE
  5
2D6
330
291
100
AcDbEntity
  8
PROFILE
  6
AUSGEZOGEN
 62
    16
420
  8388608
370
    18
100
AcDbLine
 10
651.880615270242
 20
180.823181257862
 30
0.0
 11
650.575254084236
 21
182.128542443869
 31
0.0
  0
LINE
  5
2D7
330
291
100
AcDbEntity
  8
PROFILE
  6
AUSGEZOGEN
 62
    16
420
  8388608
370
    18
100
AcDbLine
 10
653.296682655664
 20
180.922342689269
 30
0.0
 11
652.070018872346
 21
182.149006472587
 31
0.0
  0
LINE
  5
2D8
330
291
100
AcDbEntity
  8
PROFILE
  6
AUSGEZOGEN
 62
    16
420
  8388608
370
    18
100
AcDbLine
 10
651.691211668139
 20
182.527813676794
 30
0.0
 11
651.691211668139
 21
182.527813676794
 31
0.0
  0
LINE
  5
2D9
330
291
100
AcDbEntity
  8
PROFILE
  6
AUSGEZOGEN
 62
    16
420
  8388608
370
    18
100
AcDbLine
 10
651.312404463932
 20
182.906620881001
 30
0.0
 11
650.575254084236
 21
183.643771260697
 31
0.0
  0
LINE
  5
2DA
330
291
100
AcDbEntity
  8
PROFILE
  6
AUSGEZOGEN
 62
    16
420
  8388608
370
    18
100
AcDbLine
 10
653.296682655664
 20
182.437571506097
 30
0.0
 11
651.501808066035
 21
184.232446095726
 31
0.0
  0
LINE
  5
2DB
330
291
100
AcDbEntity
  8
PROFILE
  6
AUSGEZOGEN
 62
    16
420
  8388608
370
    18
100
AcDbLine
 10
651.123000861828
 20
184.611253299933
 30
0.0
 11
651.123000861828
 21
184.611253299933
 31
0.0
  0
LINE
  5
2DC
330
291
100
AcDbEntity
  8
PROFILE
  6
AUSGEZOGEN
 62
    16
420
  8388608
370
    18
100
AcDbLine
 10
650.744193657621
 20
184.99006050414
 30
0.0
 11
650.575254084236
 21
185.159000077525
 31
0.0
  0
LINE
  5
2DD
330
291
100
AcDbEntity
  8
PROFILE
  6
AUSGEZOGEN
 62
    16
420
  8388608
370
    18
100
AcDbLine
 10
653.206440484967
 20
184.043042493623
 30
0.0
 11
653.206440484967
 21
184.043042493623
 31
0.0
  0
LINE
  5
2DE
330
291
100
AcDbEntity
  8
PROFILE
  6
AUSGEZOGEN
 62
    16
420
  8388608
370
    18
100
AcDbLine
 10
652.82763328076
 20
184.42184969783
 30
0.0
 11
650.933597259724
 21
186.315885718865
 31
0.0
  0
LINE
  5
2DF
330
291
100
AcDbEntity
  8
PROFILE
  6
AUSGEZOGEN
 62
    16
420
  8388608
370
    18
100
AcDbLine
 10
653.296682655664
 20
185.468029139753
 30
0.0
 11
653.017036882863
 21
185.747674912554
 31
0.0
  0
LINE
  5
2E0
330
291
100
AcDbEntity
  8
PROFILE
  6
AUSGEZOGEN
 62
    16
420
  8388608
370
    18
100
AcDbLine
 10
652.638229678656
 20
186.126482116762
 30
0.0
 11
652.638229678656
 21
186.126482116762
 31
0.0
  0
LINE
  5
2E1
330
291
100
AcDbEntity
  8
PROFILE
  6
AUSGEZOGEN
 62
    16
420
  8388608
370
    18
100
AcDbLine
 10
652.259422474449
 20
186.505289320969
 30
0.0
 11
650.575254084236
 21
188.189457711182
 31
0.0
  0
LINE
  5
2E2
330
291
100
AcDbEntity
  8
PROFILE
  6
AUSGEZOGEN
 62
    16
420
  8388608
370
    18
100
AcDbLine
 10
653.296682655664
 20
186.983257956582
 30
0.0
 11
652.448826076553
 21
187.831114535693
 31
0.0
  0
LINE
  5
2E3
330
291
100
AcDbEntity
  8
PROFILE
  6
AUSGEZOGEN
 62
    16
420
  8388608
370
    18
100
AcDbLine
 10
652.070018872346
 20
188.209921739901
 30
0.0
 11
652.070018872346
 21
188.209921739901
 31
0.0
  0
LINE
  5
2E4
330
291
100
AcDbEntity
  8
PROFILE
  6
AUSGEZOGEN
 62
    16
420
  8388608
370
    18
100
AcDbLine
 10
651.691211668139
 20
188.588728944108
 30
0.0
 11
650.575254084236
 21
189.70468652801
 31
0.0
  0
LINE
  5
2E5
330
291
100
AcDbEntity
  8
PROFILE
  6
AUSGEZOGEN
 62
    16
420
  8388608
370
    18
100
AcDbLine
 10
653.296682655664
 20
188.49848677341
 30
0.0
 11
651.880615270242
 21
189.914554158832
 31
0.0
  0
LINE
  5
2E6
330
291
100
AcDbEntity
  8
PROFILE
  6
AUSGEZOGEN
 62
    16
420
  8388608
370
    18
100
AcDbLine
 10
651.501808066035
 20
190.293361363039
 30
0.0
 11
651.501808066035
 21
190.293361363039
 31
0.0
  0
LINE
  5
2E7
330
291
100
AcDbEntity
  8
PROFILE
  6
AUSGEZOGEN
 62
    16
420
  8388608
370
    18
100
AcDbLine
 10
651.123000861828
 20
190.672168567247
 30
0.0
 11
650.628098875136
 21
191.167070553939
 31
0.0
  0
LINE
  5
2E8
330
291
100
AcDbEntity
  8
PROFILE
  6
AUSGEZOGEN
 62
    16
420
  8388608
370
    18
100
AcDbLine
 10
653.206440484967
 20
190.103957760936
 30
0.0
 11
652.143327691964
 21
191.167070553939
 31
0.0
  0
ENDBLK
  5
293
330
291
100
AcDbEntity
  8
0
100
AcDbBlockEnd
  0
ENDSEC
  0
SECTION
  2
ENTITIES
  0
INSERT
  5
2EA
330
1F
100
AcDbEntity
  8
0
100
AcDbBlockReference
  2
Inch
 10
0.0
 20
0.0
 30
0.0
 41
0.03937007874
 42
0.03937007874
 43
0.03937007874
  0
ENDSEC
  0
SECTION
  2
OBJECTS
  0
DICTIONARY
  5
C
330
0
100
AcDbDictionary
281
     1
  3
ACAD_DETAILVIEWSTYLE
350
328
  3
ACAD_GROUP
350
D
  3
ACAD_LAYOUT
350
1A
  3
ACAD_MATERIAL
350
43
  3
ACAD_MLEADERSTYLE
350
327
  3
ACAD_MLINESTYLE
350
17
  3
ACAD_PLOTSETTINGS
350
19
  3
ACAD_PLOTSTYLENAME
350
E
  3
ACAD_SCALELIST
350
47
  3
ACAD_SECTIONVIEWSTYLE
350
329
  3
ACAD_TABLESTYLE
350
326
  3
ACAD_VISUALSTYLE
350
2A
  3
ACAD_WIPEOUT_VARS
350
6A
  3
AcDbVariableDictionary
350
2ED
  0
DICTIONARY
  5
2EB
330
8
100
AcDbDictionary
280
     1
281
     1
  3
ACAD_XREC_ROUNDTRIP
360
2EC
  0
DICTIONARY
  5
328
102
{ACAD_REACTORS
330
C
102
}
330
C
100
AcDbDictionary
281
     1
  0
DICTIONARY
  5
D
102
{ACAD_REACTORS
330
C
102
}
330
C
100
AcDbDictionary
281
     1
  0
DICTIONARY
  5
1A
102
{ACAD_REACTORS
330
C
102
}
330
C
100
AcDbDictionary
281
     1
  3
Layout1
350
1E
  3
Layout2
350
26
  3
Model
350
22
  0
DICTIONARY
  5
43
102
{ACAD_REACTORS
330
C
102
}
330
C
100
AcDbDictionary
281
     1
  3
ByBlock
350
45
  3
ByLayer
350
44
  3
Global
350
46
  0
DICTIONARY
  5
327
102
{ACAD_REACTORS
330
C
102
}
330
C
100
AcDbDictionary
281
     1
  0
DICTIONARY
  5
17
102
{ACAD_REACTORS
330
C
102
}
330
C
100
AcDbDictionary
281
     1
  3
Standard
350
18
  0
DICTIONARY
  5
19
102
{ACAD_REACTORS
330
C
102
}
330
C
100
AcDbDictionary
281
     1
  0
ACDBDICTIONARYWDFLT
  5
E
102
{ACAD_REACTORS
330
C
102
}
330
C
100
AcDbDictionary
281
     1
  3
Normal
350
F
100
AcDbDictionaryWithDefault
340
F
  0
DICTIONARY
  5
47
102
{ACAD_REACTORS
330
C
102
}
330
C
100
AcDbDictionary
281
     1
  3
A0
350
48
  3
A1
350
49
  3
A2
350
4A
  3
A3
350
4B
  3
A4
350
4C
  3
A5
350
4D
  3
A6
350
4E
  3
A7
350
4F
  3
A8
350
50
  3
A9
350
51
  3
B0
350
52
  3
B1
350
53
  3
B2
350
54
  3
B3
350
55
  3
B4
350
56
  3
B5
350
57
  3
B6
350
58
  3
B7
350
59
  3
B8
350
5A
  3
B9
350
5B
  3
C0
350
5C
  3
C1
350
5D
  3
C2
350
5E
  3
C3
350
5F
  3
C4
350
60
  3
C5
350
61
  3
C6
350
62
  3
C7
350
63
  3
C8
350
64
  3
C9
350
65
  3
D0
350
66
  3
D1
350
67
  3
D2
350
68
  0
DICTIONARY
  5
329
102
{ACAD_REACTORS
330
C
102
}
330
C
100
AcDbDictionary
281
     1
  0
DICTIONARY
  5
326
102
{ACAD_REACTORS
330
C
102
}
330
C
100
AcDbDictionary
281
     1
  0
DICTIONARY
  5
2A
102
{ACAD_REACTORS
330
C
102
}
330
C
100
AcDbDictionary
281
     1
  3
2dWireframe
350
2F
  3
Basic
350
32
  3
Brighten
350
36
  3
ColorChange
350
3A
  3
Conceptual
350
34
  3
Dim
350
35
  3
EdgeColorOff
350
3D
  3
Facepattern
350
39
  3
Flat
350
2B
  3
FlatWithEdges
350
2C
  3
Gouraud
350
2D
  3
GouraudWithEdges
350
2E
  3
Hidden
350
31
  3
JitterOff
350
3B
  3
Linepattern
350
38
  3
OverhangOff
350
3C
  3
Realistic
350
33
  3
Shaded
350
42
  3
Shaded with edges
350
41
  3
Shades of Gray
350
3E
  3
Sketchy
350
3F
  3
Thicken
350
37
  3
Wireframe
350
30
  3
X-Ray
350
40
  0
WIPEOUTVARIABLES
  5
6A
102
{ACAD_REACTORS
330
C
102
}
330
C
100
AcDbWipeoutVariables
 70
     0
  0
DICTIONARY
  5
2ED
102
{ACAD_REACTORS
330
C
102
}
330
C
100
AcDbDictionary
281
     1
  3
CANNOSCALE
350
2EE
  3
MSLTSCALE
350
2EF
  0
XRECORD
  5
2EC
102
{ACAD_REACTORS
330
2EB
102
}
330
2EB
100
AcDbXrecord
280
     1
102
VTR_0.000_0.000_1.000_1.000_GRIDDISPLAY
 70
     3
102
VTR_0.000_0.000_1.000_1.000_GRIDMAJOR
 70
     5
102
VTR_0.000_0.000_1.000_1.000_DEFAULTLIGHTING
280
     1
102
VTR_0.000_0.000_1.000_1.000_DEFAULTLIGHTINGTYPE
 70
     1
102
VTR_0.000_0.000_1.000_1.000_BRIGHTNESS
141
0.0
102
VTR_0.000_0.000_1.000_1.000_CONTRAST
142
0.0
  0
LAYOUT
  5
1E
102
{ACAD_REACTORS
330
1A
102
}
330
1A
100
AcDbPlotSettings
  1

  2
none_device
  4

  6

 40
0.0
 41
0.0
 42
0.0
 43
0.0
 44
0.0
 45
0.0
 46
0.0
 47
0.0
 48
0.0
 49
0.0
140
0.0
141
0.0
142
1.0
143
1.0
 70
   688
 72
     1
 73
     0
 74
     5
  7

 75
    16
 76
     0
 77
     2
 78
   300
147
1.0
148
0.0
149
0.0
100
AcDbLayout
  1
Layout1
 70
     1
 71
     1
 10
0.0
 20
0.0
 11
420.0
 21
297.0
 12
0.0
 22
0.0
 32
0.0
 14
1.000000000000E+20
 24
1.000000000000E+20
 34
1.000000000000E+20
 15
-1.000000000000E+20
 25
-1.000000000000E+20
 35
-1.000000000000E+20
146
0.0
 13
0.0
 23
0.0
 33
0.0
 16
1.0
 26
0.0
 36
0.0
 17
0.0
 27
1.0
 37
0.0
 76
     0
330
1B
  0
LAYOUT
  5
26
102
{ACAD_REACTORS
330
1A
102
}
330
1A
100
AcDbPlotSettings
  1

  2
none_device
  4

  6

 40
0.0
 41
0.0
 42
0.0
 43
0.0
 44
0.0
 45
0.0
 46
0.0
 47
0.0
 48
0.0
 49
0.0
140
0.0
141
0.0
142
1.0
143
1.0
 70
   688
 72
     1
 73
     0
 74
     5
  7

 75
    16
 76
     0
 77
     2
 78
   300
147
1.0
148
0.0
149
0.0
100
AcDbLayout
  1
Layout2
 70
     1
 71
     2
 10
0.0
 20
0.0
 11
0.0
 21
0.0
 12
0.0
 22
0.0
 32
0.0
 14
0.0
 24
0.0
 34
0.0
 15
0.0
 25
0.0
 35
0.0
146
0.0
 13
0.0
 23
0.0
 33
0.0
 16
1.0
 26
0.0
 36
0.0
 17
0.0
 27
1.0
 37
0.0
 76
     0
330
23
  0
LAYOUT
  5
22
102
{ACAD_REACTORS
330
1A
102
}
330
1A
100
AcDbPlotSettings
  1

  2
none_device
  4
Letter_(8.50_x_11.00_Inches)
  6

 40
6.35
 41
6.35
 42
6.35000508
 43
6.35000508
 44
215.9
 45
279.4
 46
0.0
 47
0.0
 48
0.0
 49
0.0
140
0.0
141
0.0
142
1.0
143
1.0
 70
  1712
 72
     1
 73
     0
 74
     0
  7

 75
     0
 76
     0
 77
     2
 78
   300
147
1.0
148
0.0
149
0.0
100
AcDbLayout
  1
Model
 70
     1
 71
     0
 10
0.0
 20
0.0
 11
420.0
 21
297.0
 12
0.0
 22
0.0
 32
0.0
 14
8.502335063877
 24
0.197607851972
 34
0.0
 15
35.655592059289
 25
11.541907851972
 35
0.0
146
0.0
 13
0.0
 23
0.0
 33
0.0
 16
1.0
 26
0.0
 36
0.0
 17
0.0
 27
1.0
 37
0.0
 76
     0
330
1F
331
29
  0
MATERIAL
  5
45
102
{ACAD_REACTORS
330
43
102
}
102
{ACAD_XDICTIONARY
360
322
102
}
330
43
100
AcDbMaterial
  1
ByBlock
  0
MATERIAL
  5
44
102
{ACAD_REACTORS
330
43
102
}
102
{ACAD_XDICTIONARY
360
320
102
}
330
43
100
AcDbMaterial
  1
ByLayer
  0
MATERIAL
  5
46
102
{ACAD_REACTORS
330
43
102
}
102
{ACAD_XDICTIONARY
360
324
102
}
330
43
100
AcDbMaterial
  1
Global
  0
MLINESTYLE
  5
18
102
{ACAD_REACTORS
330
17
102
}
330
17
100
AcDbMlineStyle
  2
Standard
 70
     0
  3

 62
   256
 51
90.0
 52
90.0
 71
     2
 49
0.5
 62
   256
  6
BYLAYER
 49
-0.5
 62
   256
  6
BYLAYER
  0
ACDBPLACEHOLDER
  5
F
102
{ACAD_REACTORS
330
E
102
}
330
E
  0
SCALE
  5
48
102
{ACAD_REACTORS
330
47
102
}
330
47
100
AcDbScale
 70
     0
300
1:1
140
1.0
141
1.0
290
     1
  0
SCALE
  5
49
102
{ACAD_REACTORS
330
47
102
}
330
47
100
AcDbScale
 70
     0
300
1:2
140
1.0
141
2.0
290
     0
  0
SCALE
  5
4A
102
{ACAD_REACTORS
330
47
102
}
330
47
100
AcDbScale
 70
     0
300
1:4
140
1.0
141
4.0
290
     0
  0
SCALE
  5
4B
102
{ACAD_REACTORS
330
47
102
}
330
47
100
AcDbScale
 70
     0
300
1:5
140
1.0
141
5.0
290
     0
  0
SCALE
  5
4C
102
{ACAD_REACTORS
330
47
102
}
330
47
100
AcDbScale
 70
     0
300
1:8
140
1.0
141
8.0
290
     0
  0
SCALE
  5
4D
102
{ACAD_REACTORS
330
47
102
}
330
47
100
AcDbScale
 70
     0
300
1:10
140
1.0
141
10.0
290
     0
  0
SCALE
  5
4E
102
{ACAD_REACTORS
330
47
102
}
330
47
100
AcDbScale
 70
     0
300
1:16
140
1.0
141
16.0
290
     0
  0
SCALE
  5
4F
102
{ACAD_REACTORS
330
47
102
}
330
47
100
AcDbScale
 70
     0
300
1:20
140
1.0
141
20.0
290
     0
  0
SCALE
  5
50
102
{ACAD_REACTORS
330
47
102
}
330
47
100
AcDbScale
 70
     0
300
1:30
140
1.0
141
30.0
290
     0
  0
SCALE
  5
51
102
{ACAD_REACTORS
330
47
102
}
330
47
100
AcDbScale
 70
     0
300
1:40
140
1.0
141
40.0
290
     0
  0
SCALE
  5
52
102
{ACAD_REACTORS
330
47
102
}
330
47
100
AcDbScale
 70
     0
300
1:50
140
1.0
141
50.0
290
     0
  0
SCALE
  5
53
102
{ACAD_REACTORS
330
47
102
}
330
47
100
AcDbScale
 70
     0
300
1:100
140
1.0
141
100.0
290
     0
  0
SCALE
  5
54
102
{ACAD_REACTORS
330
47
102
}
330
47
100
AcDbScale
 70
     0
300
2:1
140
2.0
141
1.0
290
     0
  0
SCALE
  5
55
102
{ACAD_REACTORS
330
47
102
}
330
47
100
AcDbScale
 70
     0
300
4:1
140
4.0
141
1.0
290
     0
  0
SCALE
  5
56
102
{ACAD_REACTORS
330
47
102
}
330
47
100
AcDbScale
 70
     0
300
8:1
140
8.0
141
1.0
290
     0
  0
SCALE
  5
57
102
{ACAD_REACTORS
330
47
102
}
330
47
100
AcDbScale
 70
     0
300
10:1
140
10.0
141
1.0
290
     0
  0
SCALE
  5
58
102
{ACAD_REACTORS
330
47
102
}
330
47
100
AcDbScale
 70
     0
300
100:1
140
100.0
141
1.0
290
     0
  0
SCALE
  5
59
102
{ACAD_REACTORS
330
47
102
}
330
47
100
AcDbScale
 70
     0
300
1/128" = 1'-0"
140
0.0078125
141
12.0
290
     0
  0
SCALE
  5
5A
102
{ACAD_REACTORS
330
47
102
}
330
47
100
AcDbScale
 70
     0
300
1/64" = 1'-0"
140
0.015625
141
12.0
290
     0
  0
SCALE
  5
5B
102
{ACAD_REACTORS
330
47
102
}
330
47
100
AcDbScale
 70
     0
300
1/32" = 1'-0"
140
0.03125
141
12.0
290
     0
  0
SCALE
  5
5C
102
{ACAD_REACTORS
330
47
102
}
330
47
100
AcDbScale
 70
     0
300
1/16" = 1'-0"
140
0.0625
141
12.0
290
     0
  0
SCALE
  5
5D
102
{ACAD_REACTORS
330
47
102
}
330
47
100
AcDbScale
 70
     0
300
3/32" = 1'-0"
140
0.09375
141
12.0
290
     0
  0
SCALE
  5
5E
102
{ACAD_REACTORS
330
47
102
}
330
47
100
AcDbScale
 70
     0
300
1/8" = 1'-0"
140
0.125
141
12.0
290
     0
  0
SCALE
  5
5F
102
{ACAD_REACTORS
330
47
102
}
330
47
100
AcDbScale
 70
     0
300
3/16" = 1'-0"
140
0.1875
141
12.0
290
     0
  0
SCALE
  5
60
102
{ACAD_REACTORS
330
47
102
}
330
47
100
AcDbScale
 70
     0
300
1/4" = 1'-0"
140
0.25
141
12.0
290
     0
  0
SCALE
  5
61
102
{ACAD_REACTORS
330
47
102
}
330
47
100
AcDbScale
 70
     0
300
3/8" = 1'-0"
140
0.375
141
12.0
290
     0
  0
SCALE
  5
62
102
{ACAD_REACTORS
330
47
102
}
330
47
100
AcDbScale
 70
     0
300
1/2" = 1'-0"
140
0.5
141
12.0
290
     0
  0
SCALE
  5
63
102
{ACAD_REACTORS
330
47
102
}
330
47
100
AcDbScale
 70
     0
300
3/4" = 1'-0"
140
0.75
141
12.0
290
     0
  0
SCALE
  5
64
102
{ACAD_REACTORS
330
47
102
}
330
47
100
AcDbScale
 70
     0
300
1" = 1'-0"
140
1.0
141
12.0
290
     0
  0
SCALE
  5
65
102
{ACAD_REACTORS
330
47
102
}
330
47
100
AcDbScale
 70
     0
300
1-1/2" = 1'-0"
140
1.5
141
12.0
290
     0
  0
SCALE
  5
66
102
{ACAD_REACTORS
330
47
102
}
330
47
100
AcDbScale
 70
     0
300
3" = 1'-0"
140
3.0
141
12.0
290
     0
  0
SCALE
  5
67
102
{ACAD_REACTORS
330
47
102
}
330
47
100
AcDbScale
 70
     0
300
6" = 1'-0"
140
6.0
141
12.0
290
     0
  0
SCALE
  5
68
102
{ACAD_REACTORS
330
47
102
}
330
47
100
AcDbScale
 70
     0
300
1'-0" = 1'-0"
140
12.0
141
12.0
290
     0
  0
VISUALSTYLE
  5
2F
102
{ACAD_REACTORS
330
2A
102
}
102
{ACAD_XDICTIONARY
360
2F8
102
}
330
2A
100
AcDbVisualStyle
  2
2dWireframe
 70
     4
 71
     0
 72
     2
 73
     0
 90
        0
 40
0.6
 41
30.0
 62
     5
 63
     7
421
 16777215
 74
     1
 91
        4
 64
     7
 65
   257
 75
     1
175
     1
 42
1.0
 92
        0
 66
   257
 43
1.0
 76
     1
 77
     6
 78
     2
 67
     7
 79
     5
170
     0
171
     0
290
     0
174
     0
 93
        1
 44
0.0
173
     0
291
     0
 45
0.0
1001
ACAD
1000
AcDbSavedByObjectVersion
1070
     0
  0
VISUALSTYLE
  5
32
102
{ACAD_REACTORS
330
2A
102
}
102
{ACAD_XDICTIONARY
360
2FE
102
}
330
2A
100
AcDbVisualStyle
  2
Basic
 70
     7
 71
     1
 72
     0
 73
     1
 90
        0
 40
0.6
 41
30.0
 62
     5
 63
     7
421
 16777215
 74
     0
 91
        4
 64
     7
 65
   257
 75
     1
175
     1
 42
1.0
 92
        8
 66
     7
 43
1.0
 76
     1
 77
     6
 78
     2
 67
     7
 79
     5
170
     0
171
     0
290
     0
174
     0
 93
        1
 44
0.0
173
     0
291
     1
 45
0.0
1001
ACAD
1000
AcDbSavedByObjectVersion
1070
     0
  0
VISUALSTYLE
  5
36
102
{ACAD_REACTORS
330
2A
102
}
102
{ACAD_XDICTIONARY
360
306
102
}
330
2A
100
AcDbVisualStyle
  2
Brighten
 70
    12
 71
     2
 72
     2
 73
     0
 90
        0
 40
0.6
 41
30.0
 62
     5
 63
     7
421
 16777215
 74
     1
 91
        4
 64
     7
 65
   257
 75
     1
175
     1
 42
1.0
 92
        8
 66
     7
 43
1.0
 76
     1
 77
     6
 78
     2
 67
     7
 79
     5
170
     0
171
     0
290
     0
174
     0
 93
        1
 44
50.0
173
     0
291
     1
 45
0.0
1001
ACAD
1000
AcDbSavedByObjectVersion
1070
     0
  0
VISUALSTYLE
  5
3A
102
{ACAD_REACTORS
330
2A
102
}
102
{ACAD_XDICTIONARY
360
30E
102
}
330
2A
100
AcDbVisualStyle
  2
ColorChange
 70
    16
 71
     2
 72
     2
 73
     3
 90
        0
 40
0.6
 41
30.0
 62
     5
 63
     8
421
  8421504
 74
     1
 91
        4
 64
     7
 65
   257
 75
     1
175
     1
 42
1.0
 92
        8
 66
     8
424
  8421504
 43
1.0
 76
     1
 77
     6
 78
     2
 67
     7
 79
     5
170
     0
171
     0
290
     0
174
     0
 93
        1
 44
0.0
173
     0
291
     1
 45
0.0
1001
ACAD
1000
AcDbSavedByObjectVersion
1070
     0
  0
VISUALSTYLE
  5
34
102
{ACAD_REACTORS
330
2A
102
}
102
{ACAD_XDICTIONARY
360
302
102
}
330
2A
100
AcDbVisualStyle
  2
Conceptual
 70
     9
 71
     3
 72
     2
 73
     0
 90
        0
 40
0.6
 41
30.0
 62
     5
 63
     7
421
 16777215
 74
     2
 91
        2
 64
     7
 65
   257
 75
     1
175
     1
 42
179.0
 92
        8
 66
     7
 43
1.0
 76
     1
 77
     6
 78
     2
 67
     7
 79
     3
170
     0
171
     0
290
     0
174
     0
 93
        1
 44
0.0
173
     0
291
     0
 45
0.0
1001
ACAD
1000
AcDbSavedByObjectVersion
1070
     0
  0
VISUALSTYLE
  5
35
102
{ACAD_REACTORS
330
2A
102
}
102
{ACAD_XDICTIONARY
360
304
102
}
330
2A
100
AcDbVisualStyle
  2
Dim
 70
    11
 71
     2
 72
     2
 73
     0
 90
        0
 40
0.6
 41
30.0
 62
     5
 63
     7
421
 16777215
 74
     1
 91
        4
 64
     7
 65
   257
 75
     1
175
     1
 42
1.0
 92
        8
 66
     7
 43
1.0
 76
     1
 77
     6
 78
     2
 67
     7
 79
     5
170
     0
171
     0
290
     0
174
     0
 93
        1
 44
-50.0
173
     0
291
     1
 45
0.0
1001
ACAD
1000
AcDbSavedByObjectVersion
1070
     0
  0
VISUALSTYLE
  5
3D
102
{ACAD_REACTORS
330
2A
102
}
102
{ACAD_XDICTIONARY
360
314
102
}
330
2A
100
AcDbVisualStyle
  2
EdgeColorOff
 70
    22
 71
     2
 72
     2
 73
     0
 90
        0
 40
0.6
 41
30.0
 62
     5
 63
     7
421
 16777215
 74
     1
 91
        4
 64
     7
 65
   257
 75
     1
175
     1
 42
1.0
 92
        8
 66
     7
 43
1.0
 76
     1
 77
     6
 78
     2
 67
     7
 79
     5
170
     0
171
     0
290
     0
174
     0
 93
        1
 44
0.0
173
     0
291
     1
 45
0.0
1001
ACAD
1000
AcDbSavedByObjectVersion
1070
     0
  0
VISUALSTYLE
  5
39
102
{ACAD_REACTORS
330
2A
102
}
102
{ACAD_XDICTIONARY
360
30C
102
}
330
2A
100
AcDbVisualStyle
  2
Facepattern
 70
    15
 71
     2
 72
     2
 73
     0
 90
        0
 40
0.6
 41
30.0
 62
     5
 63
     7
421
 16777215
 74
     1
 91
        4
 64
     7
 65
   257
 75
     1
175
     1
 42
1.0
 92
        8
 66
     7
 43
1.0
 76
     1
 77
     6
 78
     2
 67
     7
 79
     5
170
     0
171
     0
290
     0
174
     0
 93
        1
 44
0.0
173
     0
291
     1
 45
0.0
1001
ACAD
1000
AcDbSavedByObjectVersion
1070
     0
  0
VISUALSTYLE
  5
2B
102
{ACAD_REACTORS
330
2A
102
}
102
{ACAD_XDICTIONARY
360
2F0
102
}
330
2A
100
AcDbVisualStyle
  2
Flat
 70
     0
 71
     2
 72
     1
 73
     1
 90
        2
 40
0.6
 41
30.0
 62
     5
 63
     7
421
 16777215
 74
     0
 91
        0
 64
     7
 65
   257
 75
     1
175
     1
 42
1.0
 92
        8
 66
     7
 43
1.0
 76
     1
 77
     6
 78
     2
 67
     7
 79
     5
170
     0
171
     0
290
     0
174
     0
 93
       13
 44
0.0
173
     0
291
     1
 45
0.0
1001
ACAD
1000
AcDbSavedByObjectVersion
1070
     0
  0
VISUALSTYLE
  5
2C
102
{ACAD_REACTORS
330
2A
102
}
102
{ACAD_XDICTIONARY
360
2F2
102
}
330
2A
100
AcDbVisualStyle
  2
FlatWithEdges
 70
     1
 71
     2
 72
     1
 73
     1
 90
        2
 40
0.6
 41
30.0
 62
     5
 63
     7
421
 16777215
 74
     1
 91
        0
 64
     7
 65
   257
 75
     1
175
     1
 42
1.0
 92
        0
 66
   257
 43
1.0
 76
     1
 77
     6
 78
     2
 67
     7
 79
     5
170
     0
171
     0
290
     0
174
     0
 93
       13
 44
0.0
173
     0
291
     1
 45
0.0
1001
ACAD
1000
AcDbSavedByObjectVersion
1070
     0
  0
VISUALSTYLE
  5
2D
102
{ACAD_REACTORS
330
2A
102
}
102
{ACAD_XDICTIONARY
360
2F4
102
}
330
2A
100
AcDbVisualStyle
  2
Gouraud
 70
     2
 71
     2
 72
     2
 73
     1
 90
        2
 40
0.6
 41
30.0
 62
     5
 63
     7
421
 16777215
 74
     0
 91
        0
 64
     7
 65
   257
 75
     1
175
     1
 42
1.0
 92
        0
 66
     7
 43
1.0
 76
     1
 77
     6
 78
     2
 67
     7
 79
     5
170
     0
171
     0
290
     0
174
     0
 93
       13
 44
0.0
173
     0
291
     1
 45
0.0
1001
ACAD
1000
AcDbSavedByObjectVersion
1070
     0
  0
VISUALSTYLE
  5
2E
102
{ACAD_REACTORS
330
2A
102
}
102
{ACAD_XDICTIONARY
360
2F6
102
}
330
2A
100
AcDbVisualStyle
  2
GouraudWithEdges
 70
     3
 71
     2
 72
     2
 73
     1
 90
        2
 40
0.6
 41
30.0
 62
     5
 63
     7
421
 16777215
 74
     1
 91
        0
 64
     7
 65
   257
 75
     1
175
     1
 42
1.0
 92
        0
 66
   257
 43
1.0
 76
     1
 77
     6
 78
     2
 67
     7
 79
     5
170
     0
171
     0
290
     0
174
     0
 93
       13
 44
0.0
173
     0
291
     1
 45
0.0
1001
ACAD
1000
AcDbSavedByObjectVersion
1070
     0
  0
VISUALSTYLE
  5
31
102
{ACAD_REACTORS
330
2A
102
}
102
{ACAD_XDICTIONARY
360
2FC
102
}
330
2A
100
AcDbVisualStyle
  2
Hidden
 70
     6
 71
     1
 72
     2
 73
     2
 90
        0
 40
0.6
 41
30.0
 62
     5
 63
     7
421
 16777215
 74
     2
 91
        2
 64
     7
 65
   257
 75
     2
175
     1
 42
40.0
 92
        0
 66
   257
 43
1.0
 76
     1
 77
     6
 78
     2
 67
     7
 79
     3
170
     0
171
     0
290
     0
174
     0
 93
        1
 44
0.0
173
     0
291
     0
 45
0.0
1001
ACAD
1000
AcDbSavedByObjectVersion
1070
     0
  0
VISUALSTYLE
  5
3B
102
{ACAD_REACTORS
330
2A
102
}
102
{ACAD_XDICTIONARY
360
310
102
}
330
2A
100
AcDbVisualStyle
  2
JitterOff
 70
    20
 71
     2
 72
     2
 73
     0
 90
        0
 40
0.6
 41
30.0
 62
     5
 63
     7
421
 16777215
 74
     1
 91
        4
 64
     7
 65
   257
 75
     1
175
     1
 42
1.0
 92
       10
 66
     7
 43
1.0
 76
     1
 77
     6
 78
     2
 67
     7
 79
     5
170
     0
171
     0
290
     0
174
     0
 93
        1
 44
0.0
173
     0
291
     1
 45
0.0
1001
ACAD
1000
AcDbSavedByObjectVersion
1070
     0
  0
VISUALSTYLE
  5
38
102
{ACAD_REACTORS
330
2A
102
}
102
{ACAD_XDICTIONARY
360
30A
102
}
330
2A
100
AcDbVisualStyle
  2
Linepattern
 70
    14
 71
     2
 72
     2
 73
     0
 90
        0
 40
0.6
 41
30.0
 62
     5
 63
     7
421
 16777215
 74
     1
 91
        4
 64
     7
 65
   257
 75
     7
175
     7
 42
1.0
 92
        8
 66
     7
 43
1.0
 76
     1
 77
     6
 78
     2
 67
     7
 79
     5
170
     0
171
     0
290
     0
174
     0
 93
        1
 44
0.0
173
     0
291
     1
 45
0.0
1001
ACAD
1000
AcDbSavedByObjectVersion
1070
     0
  0
VISUALSTYLE
  5
3C
102
{ACAD_REACTORS
330
2A
102
}
102
{ACAD_XDICTIONARY
360
312
102
}
330
2A
100
AcDbVisualStyle
  2
OverhangOff
 70
    21
 71
     2
 72
     2
 73
     0
 90
        0
 40
0.6
 41
30.0
 62
     5
 63
     7
421
 16777215
 74
     1
 91
        4
 64
     7
 65
   257
 75
     1
175
     1
 42
1.0
 92
        9
 66
     7
 43
1.0
 76
     1
 77
     6
 78
     2
 67
     7
 79
     5
170
     0
171
     0
290
     0
174
     0
 93
        1
 44
0.0
173
     0
291
     1
 45
0.0
1001
ACAD
1000
AcDbSavedByObjectVersion
1070
     0
  0
VISUALSTYLE
  5
33
102
{ACAD_REACTORS
330
2A
102
}
102
{ACAD_XDICTIONARY
360
300
102
}
330
2A
100
AcDbVisualStyle
  2
Realistic
 70
     8
 71
     2
 72
     3
 73
     0
 90
        2
 40
0.6
 41
30.0
 62
     5
 63
     7
421
 16777215
 74
     0
 91
        0
 64
     7
 65
   257
 75
     1
175
     1
 42
1.0
 92
        8
 66
   257
 43
1.0
 76
     1
 77
     6
 78
     2
 67
     7
 79
     3
170
     0
171
     0
290
     0
174
     0
 93
       13
 44
0.0
173
     0
291
     0
 45
0.0
1001
ACAD
1000
AcDbSavedByObjectVersion
1070
     0
  0
VISUALSTYLE
  5
42
102
{ACAD_REACTORS
330
2A
102
}
102
{ACAD_XDICTIONARY
360
31E
102
}
330
2A
100
AcDbVisualStyle
  2
Shaded
 70
    27
 71
     2
 72
     2
 73
     1
 90
        2
 40
0.6
 41
30.0
 62
     5
 63
     7
421
 16777215
 74
     0
 91
        4
 64
     7
 65
   257
 75
     1
175
     1
 42
1.0
 92
        8
 66
   257
 43
1.0
 76
     1
 77
     6
 78
     2
 67
     8
425
  7895160
 79
     3
170
     0
171
     0
290
     0
174
     0
 93
        5
 44
0.0
173
     0
291
     0
 45
0.0
1001
ACAD
1000
AcDbSavedByObjectVersion
1070
     0
  0
VISUALSTYLE
  5
41
102
{ACAD_REACTORS
330
2A
102
}
102
{ACAD_XDICTIONARY
360
31C
102
}
330
2A
100
AcDbVisualStyle
  2
Shaded with edges
 70
    26
 71
     2
 72
     2
 73
     1
 90
        2
 40
0.6
 41
30.0
 62
     5
 63
     7
421
 16777215
 74
     1
 91
       10
 64
     7
 65
   257
 75
     2
175
     1
 42
1.0
 92
        8
 66
   257
 43
1.0
 76
     1
 77
     6
 78
     2
 67
     7
 79
     3
170
     0
171
     0
290
     0
174
     0
 93
        5
 44
0.0
173
     0
291
     0
 45
0.0
1001
ACAD
1000
AcDbSavedByObjectVersion
1070
     0
  0
VISUALSTYLE
  5
3E
102
{ACAD_REACTORS
330
2A
102
}
102
{ACAD_XDICTIONARY
360
316
102
}
330
2A
100
AcDbVisualStyle
  2
Shades of Gray
 70
    23
 71
     2
 72
     2
 73
     3
 90
        0
 40
0.6
 41
30.0
 62
     5
 63
     7
421
 16777215
 74
     2
 91
        2
 64
     7
 65
     7
 75
     1
175
     1
 42
40.0
 92
        8
 66
     7
 43
1.0
 76
     1
 77
     6
 78
     2
 67
     7
 79
     3
170
     0
171
     0
290
     0
174
     0
 93
        1
 44
0.0
173
     0
291
     0
 45
0.0
1001
ACAD
1000
AcDbSavedByObjectVersion
1070
     0
  0
VISUALSTYLE
  5
3F
102
{ACAD_REACTORS
330
2A
102
}
102
{ACAD_XDICTIONARY
360
318
102
}
330
2A
100
AcDbVisualStyle
  2
Sketchy
 70
    24
 71
     1
 72
     2
 73
     2
 90
        0
 40
0.6
 41
30.0
 62
     5
 63
     7
421
 16777215
 74
     2
 91
        2
 64
     7
 65
     7
 75
     1
175
     1
 42
40.0
 92
       11
 66
     7
 43
1.0
 76
     1
 77
     6
 78
     2
 67
     7
 79
     6
170
     0
171
     0
290
     0
174
     0
 93
        1
 44
0.0
173
     0
291
     0
 45
0.0
1001
ACAD
1000
AcDbSavedByObjectVersion
1070
     0
  0
VISUALSTYLE
  5
37
102
{ACAD_REACTORS
330
2A
102
}
102
{ACAD_XDICTIONARY
360
308
102
}
330
2A
100
AcDbVisualStyle
  2
Thicken
 70
    13
 71
     2
 72
     2
 73
     0
 90
        0
 40
0.6
 41
30.0
 62
     5
 63
     7
421
 16777215
 74
     1
 91
        4
 64
     7
 65
   257
 75
     1
175
     1
 42
1.0
 92
       12
 66
     7
 43
1.0
 76
     1
 77
     6
 78
     2
 67
     7
 79
     5
170
     0
171
     0
290
     0
174
     0
 93
        1
 44
0.0
173
     0
291
     1
 45
0.0
1001
ACAD
1000
AcDbSavedByObjectVersion
1070
     0
  0
VISUALSTYLE
  5
30
102
{ACAD_REACTORS
330
2A
102
}
102
{ACAD_XDICTIONARY
360
2FA
102
}
330
2A
100
AcDbVisualStyle
  2
Wireframe
 70
     5
 71
     0
 72
     2
 73
     0
 90
        0
 40
0.6
 41
30.0
 62
     5
 63
     7
421
 16777215
 74
     1
 91
        4
 64
     7
 65
   257
 75
     1
175
     1
 42
1.0
 92
        0
 66
   257
 43
1.0
 76
     1
 77
     6
 78
     2
 67
     7
 79
     3
170
     0
171
     0
290
     0
174
     0
 93
        1
 44
0.0
173
     0
291
     0
 45
0.0
1001
ACAD
1000
AcDbSavedByObjectVersion
1070
     0
  0
VISUALSTYLE
  5
40
102
{ACAD_REACTORS
330
2A
102
}
102
{ACAD_XDICTIONARY
360
31A
102
}
330
2A
100
AcDbVisualStyle
  2
X-Ray
 70
    25
 71
     2
 72
     2
 73
     1
 90
        1
 40
0.5
 41
30.0
 62
     5
 63
     7
421
 16777215
 74
     1
 91
        0
 64
     7
 65
   257
 75
     1
175
     1
 42
1.0
 92
        8
 66
     7
 43
1.0
 76
     1
 77
     6
 78
     2
 67
     7
 79
     3
170
     0
171
     0
290
     0
174
     0
 93
       13
 44
0.0
173
     0
291
     0
 45
0.0
1001
ACAD
1000
AcDbSavedByObjectVersion
1070
     0
  0
DICTIONARYVAR
  5
2EE
102
{ACAD_REACTORS
330
2ED
102
}
330
2ED
100
DictionaryVariables
280
     0
  1
1:1
  0
DICTIONARYVAR
  5
2EF
102
{ACAD_REACTORS
330
2ED
102
}
330
2ED
100
DictionaryVariables
280
     0
  1
1
  0
DICTIONARY
  5
322
330
45
100
AcDbDictionary
280
     1
281
     1
  3
ACAD_XREC_ROUNDTRIP
360
323
  0
DICTIONARY
  5
320
330
44
100
AcDbDictionary
280
     1
281
     1
  3
ACAD_XREC_ROUNDTRIP
360
321
  0
DICTIONARY
  5
324
330
46
100
AcDbDictionary
280
     1
281
     1
  3
ACAD_XREC_ROUNDTRIP
360
325
  0
DICTIONARY
  5
2F8
330
2F
100
AcDbDictionary
280
     1
281
     1
  3
ACAD_XREC_ROUNDTRIP
360
2F9
  0
DICTIONARY
  5
2FE
330
32
100
AcDbDictionary
280
     1
281
     1
  3
ACAD_XREC_ROUNDTRIP
360
2FF
  0
DICTIONARY
  5
306
330
36
100
AcDbDictionary
280
     1
281
     1
  3
ACAD_XREC_ROUNDTRIP
360
307
  0
DICTIONARY
  5
30E
330
3A
100
AcDbDictionary
280
     1
281
     1
  3
ACAD_XREC_ROUNDTRIP
360
30F
  0
DICTIONARY
  5
302
330
34
100
AcDbDictionary
280
     1
281
     1
  3
ACAD_XREC_ROUNDTRIP
360
303
  0
DICTIONARY
  5
304
330
35
100
AcDbDictionary
280
     1
281
     1
  3
ACAD_XREC_ROUNDTRIP
360
305
  0
DICTIONARY
  5
314
330
3D
100
AcDbDictionary
280
     1
281
     1
  3
ACAD_XREC_ROUNDTRIP
360
315
  0
DICTIONARY
  5
30C
330
39
100
AcDbDictionary
280
     1
281
     1
  3
ACAD_XREC_ROUNDTRIP
360
30D
  0
DICTIONARY
  5
2F0
330
2B
100
AcDbDictionary
280
     1
281
     1
  3
ACAD_XREC_ROUNDTRIP
360
2F1
  0
DICTIONARY
  5
2F2
330
2C
100
AcDbDictionary
280
     1
281
     1
  3
ACAD_XREC_ROUNDTRIP
360
2F3
  0
DICTIONARY
  5
2F4
330
2D
100
AcDbDictionary
280
     1
281
     1
  3
ACAD_XREC_ROUNDTRIP
360
2F5
  0
DICTIONARY
  5
2F6
330
2E
100
AcDbDictionary
280
     1
281
     1
  3
ACAD_XREC_ROUNDTRIP
360
2F7
  0
DICTIONARY
  5
2FC
330
31
100
AcDbDictionary
280
     1
281
     1
  3
ACAD_XREC_ROUNDTRIP
360
2FD
  0
DICTIONARY
  5
310
330
3B
100
AcDbDictionary
280
     1
281
     1
  3
ACAD_XREC_ROUNDTRIP
360
311
  0
DICTIONARY
  5
30A
330
38
100
AcDbDictionary
280
     1
281
     1
  3
ACAD_XREC_ROUNDTRIP
360
30B
  0
DICTIONARY
  5
312
330
3C
100
AcDbDictionary
280
     1
281
     1
  3
ACAD_XREC_ROUNDTRIP
360
313
  0
DICTIONARY
  5
300
330
33
100
AcDbDictionary
280
     1
281
     1
  3
ACAD_XREC_ROUNDTRIP
360
301
  0
DICTIONARY
  5
31E
330
42
100
AcDbDictionary
280
     1
281
     1
  3
ACAD_XREC_ROUNDTRIP
360
31F
  0
DICTIONARY
  5
31C
330
41
100
AcDbDictionary
280
     1
281
     1
  3
ACAD_XREC_ROUNDTRIP
360
31D
  0
DICTIONARY
  5
316
330
3E
100
AcDbDictionary
280
     1
281
     1
  3
ACAD_XREC_ROUNDTRIP
360
317
  0
DICTIONARY
  5
318
330
3F
100
AcDbDictionary
280
     1
281
     1
  3
ACAD_XREC_ROUNDTRIP
360
319
  0
DICTIONARY
  5
308
330
37
100
AcDbDictionary
280
     1
281
     1
  3
ACAD_XREC_ROUNDTRIP
360
309
  0
DICTIONARY
  5
2FA
330
30
100
AcDbDictionary
280
     1
281
     1
  3
ACAD_XREC_ROUNDTRIP
360
2FB
  0
DICTIONARY
  5
31A
330
40
100
AcDbDictionary
280
     1
281
     1
  3
ACAD_XREC_ROUNDTRIP
360
31B
  0
XRECORD
  5
323
102
{ACAD_REACTORS
330
322
102
}
330
322
100
AcDbXrecord
280
     1
102
MATERIAL
148
0.0
149
0.0
149
0.0
 93
        0
 94
      127
282
     0
 72
     1
 77
     1
171
     1
175
     1
179
     1
273
     0
  0
XRECORD
  5
321
102
{ACAD_REACTORS
330
320
102
}
330
320
100
AcDbXrecord
280
     1
102
MATERIAL
148
0.0
149
0.0
149
0.0
 93
        0
 94
      127
282
     0
 72
     1
 77
     1
171
     1
175
     1
179
     1
273
     0
  0
XRECORD
  5
325
102
{ACAD_REACTORS
330
324
102
}
330
324
100
AcDbXrecord
280
     1
102
MATERIAL
148
0.0
149
0.0
149
0.0
 93
        0
 94
      127
282
     0
 72
     1
 77
     1
171
     1
175
     1
179
     1
273
     0
  0
XRECORD
  5
2F9
102
{ACAD_REACTORS
330
2F8
102
}
330
2F8
100
AcDbXrecord
280
     1
102
RTVSPropertyOp0
 70
     1
102
RTVSPropertyOp1
 70
     1
102
RTVSPropertyOp2
 70
     1
102
RTVSPropertyOp3
 70
     1
102
RTVSPropertyOp4
 70
     1
102
RTVSPropertyOp5
 70
     1
102
RTVSPropertyOp6
 70
     1
102
RTVSPropertyOp7
 70
     1
102
RTVSPropertyOp8
 70
     1
102
RTVSPropertyOp9
 70
     1
102
RTVSPropertyOp10
 70
     1
102
RTVSPropertyOp11
 70
     1
102
RTVSPropertyOp12
 70
     1
102
RTVSPropertyOp13
 70
     1
102
RTVSPropertyOp14
 70
     1
102
RTVSPropertyOp15
 70
     1
102
RTVSPropertyOp16
 70
     1
102
RTVSPropertyOp17
 70
     1
102
RTVSPropertyOp18
 70
     1
102
RTVSPropertyOp19
 70
     1
102
RTVSPropertyOp20
 70
     1
102
RTVSPropertyOp21
 70
     1
102
RTVSPropertyOp22
 70
     1
102
RTVSPropertyOp23
 70
     1
102
RTVSPropertyOp24
 70
     1
102
RTVSPropertyOp25
 70
     1
102
RTVSPropertyOp26
 70
     1
102
RTVSPropertyOp27
 70
     1
102
RTVSPropertyOp28
 70
     1
102
RTVSPropertyOp29
 70
     1
102
RTVSPropertyOp30
 70
     1
102
RTVSPropertyOp31
 70
     1
102
RTVSPropertyOp32
 70
     1
102
RTVSPropertyOp33
 70
     1
102
RTVSPropertyOp34
 70
     1
102
RTVSPropertyOp35
 70
     1
102
RTVSPropertyOp36
 70
     1
102
RTVSPropertyOp37
 70
     1
102
RTVSPropertyOp38
 70
     1
102
RTVSPropertyOp39
 70
     1
102
RTVSPropertyOp40
 70
     1
102
RTVSPropertyOp41
 70
     1
102
RTVSPropertyOp42
 70
     1
102
RTVSPropertyOp43
 70
     1
102
RTVSPropertyOp44
 70
     1
102
RTVSPropertyOp45
 70
     1
102
RTVSPropertyOp46
 70
     1
102
RTVSPropertyOp47
 70
     1
102
RTVSPropertyOp48
 70
     1
102
RTVSPropertyOp49
 70
     1
102
RTVSPropertyOp50
 70
     1
102
RTVSPropertyOp51
 70
     0
102
RTVSPropertyOp52
 70
     0
102
RTVSPropertyOp53
 70
     1
102
RTVSPropertyOp54
 70
     1
102
RTVSPropertyOp55
 70
     1
102
RTVSPropertyOp56
 70
     1
102
RTVSPropertyOp57
 70
     1
102
RTVSPost2010Prop28
280
     1
102
RTVSPost2010PropOp28
 70
     1
102
RTVSPost2010Prop29
280
     1
102
RTVSPost2010PropOp29
 70
     1
102
RTVSPost2010Prop30
280
     0
102
RTVSPost2010PropOp30
 70
     1
102
RTVSPost2010Prop31
280
     0
102
RTVSPost2010PropOp31
 70
     1
102
RTVSPost2010Prop32
280
     0
102
RTVSPost2010PropOp32
 70
     1
102
RTVSPost2010Prop33
280
     0
102
RTVSPost2010PropOp33
 70
     1
102
RTVSPost2010Prop34
280
     0
102
RTVSPost2010PropOp34
 70
     1
102
RTVSPost2010Prop35
280
     0
102
RTVSPost2010PropOp35
 70
     1
102
RTVSPost2010Prop36
280
     0
102
RTVSPost2010PropOp36
 70
     1
102
RTVSPost2010Prop37
 90
       50
102
RTVSPost2010PropOp37
 70
     1
102
RTVSPost2010Prop38
140
0.0
102
RTVSPost2010PropOp38
 70
     1
102
RTVSPost2010Prop39
140
1.0
102
RTVSPost2010PropOp39
 70
     1
102
RTVSPost2010Prop40
 90
        0
102
RTVSPost2010PropOp40
 70
     1
102
RTVSPost2010Prop41ColorIndex
 90
       18
102
RTVSPost2010Prop41ColorRGB
 90
        0
102
RTVSPost2010PropOp41
 70
     1
102
RTVSPost2010Prop42
 90
       50
102
RTVSPost2010PropOp42
 70
     1
102
RTVSPost2010Prop43
 90
        3
102
RTVSPost2010PropOp43
 70
     1
102
RTVSPost2010Prop44ColorIndex
 90
        5
102
RTVSPost2010Prop44ColorRGB
 90
      255
102
RTVSPost2010PropOp44
 70
     1
102
RTVSPost2010Prop45
280
     0
102
RTVSPost2010PropOp45
 70
     1
102
RTVSPost2010Prop46
 90
       50
102
RTVSPost2010PropOp46
 70
     1
102
RTVSPost2010Prop47
 90
       50
102
RTVSPost2010PropOp47
 70
     1
102
RTVSPost2010Prop48
 90
       50
102
RTVSPost2010PropOp48
 70
     1
102
RTVSPost2010Prop49
280
     0
102
RTVSPost2010PropOp49
 70
     1
102
RTVSPost2010Prop50
 90
       50
102
RTVSPost2010PropOp50
 70
     1
102
RTVSPost2010Prop51ColorIndex
 90
      256
102
RTVSPost2010Prop51ColorRGB
 90
-16777216
102
RTVSPost2010PropOp51
 70
     0
102
RTVSPost2010Prop52
140
1.0
102
RTVSPost2010PropOp52
 70
     0
102
RTVSPost2010Prop53
 90
        2
102
RTVSPost2010PropOp53
 70
     1
102
RTVSPost2010Prop54
  1
strokes_ogs.tif
102
RTVSPost2010PropOp54
 70
     1
102
RTVSPost2010Prop55
280
     0
102
RTVSPost2010PropOp55
 70
     1
102
RTVSPost2010Prop56
140
1.0
102
RTVSPost2010PropOp56
 70
     1
102
RTVSPost2010Prop57
140
1.0
102
RTVSPost2010PropOp57
 70
     1
  0
XRECORD
  5
2FF
102
{ACAD_REACTORS
330
2FE
102
}
330
2FE
100
AcDbXrecord
280
     1
102
RTVSPropertyOp0
 70
     1
102
RTVSPropertyOp1
 70
     1
102
RTVSPropertyOp2
 70
     1
102
RTVSPropertyOp3
 70
     1
102
RTVSPropertyOp4
 70
     1
102
RTVSPropertyOp5
 70
     1
102
RTVSPropertyOp6
 70
     1
102
RTVSPropertyOp7
 70
     1
102
RTVSPropertyOp8
 70
     1
102
RTVSPropertyOp9
 70
     1
102
RTVSPropertyOp10
 70
     1
102
RTVSPropertyOp11
 70
     1
102
RTVSPropertyOp12
 70
     1
102
RTVSPropertyOp13
 70
     1
102
RTVSPropertyOp14
 70
     1
102
RTVSPropertyOp15
 70
     1
102
RTVSPropertyOp16
 70
     1
102
RTVSPropertyOp17
 70
     1
102
RTVSPropertyOp18
 70
     1
102
RTVSPropertyOp19
 70
     1
102
RTVSPropertyOp20
 70
     1
102
RTVSPropertyOp21
 70
     1
102
RTVSPropertyOp22
 70
     1
102
RTVSPropertyOp23
 70
     1
102
RTVSPropertyOp24
 70
     1
102
RTVSPropertyOp25
 70
     1
102
RTVSPropertyOp26
 70
     1
102
RTVSPropertyOp27
 70
     1
102
RTVSPropertyOp28
 70
     1
102
RTVSPropertyOp29
 70
     1
102
RTVSPropertyOp30
 70
     1
102
RTVSPropertyOp31
 70
     1
102
RTVSPropertyOp32
 70
     1
102
RTVSPropertyOp33
 70
     1
102
RTVSPropertyOp34
 70
     1
102
RTVSPropertyOp35
 70
     1
102
RTVSPropertyOp36
 70
     1
102
RTVSPropertyOp37
 70
     1
102
RTVSPropertyOp38
 70
     1
102
RTVSPropertyOp39
 70
     1
102
RTVSPropertyOp40
 70
     1
102
RTVSPropertyOp41
 70
     1
102
RTVSPropertyOp42
 70
     1
102
RTVSPropertyOp43
 70
     1
102
RTVSPropertyOp44
 70
     1
102
RTVSPropertyOp45
 70
     1
102
RTVSPropertyOp46
 70
     1
102
RTVSPropertyOp47
 70
     1
102
RTVSPropertyOp48
 70
     1
102
RTVSPropertyOp49
 70
     1
102
RTVSPropertyOp50
 70
     1
102
RTVSPropertyOp51
 70
     0
102
RTVSPropertyOp52
 70
     0
102
RTVSPropertyOp53
 70
     1
102
RTVSPropertyOp54
 70
     1
102
RTVSPropertyOp55
 70
     1
102
RTVSPropertyOp56
 70
     1
102
RTVSPropertyOp57
 70
     1
102
RTVSPost2010Prop28
280
     0
102
RTVSPost2010PropOp28
 70
     1
102
RTVSPost2010Prop29
280
     1
102
RTVSPost2010PropOp29
 70
     1
102
RTVSPost2010Prop30
280
     1
102
RTVSPost2010PropOp30
 70
     1
102
RTVSPost2010Prop31
280
     0
102
RTVSPost2010PropOp31
 70
     1
102
RTVSPost2010Prop32
280
     0
102
RTVSPost2010PropOp32
 70
     1
102
RTVSPost2010Prop33
280
     0
102
RTVSPost2010PropOp33
 70
     1
102
RTVSPost2010Prop34
280
     0
102
RTVSPost2010PropOp34
 70
     1
102
RTVSPost2010Prop35
280
     0
102
RTVSPost2010PropOp35
 70
     1
102
RTVSPost2010Prop36
280
     0
102
RTVSPost2010PropOp36
 70
     1
102
RTVSPost2010Prop37
 90
       50
102
RTVSPost2010PropOp37
 70
     1
102
RTVSPost2010Prop38
140
0.0
102
RTVSPost2010PropOp38
 70
     1
102
RTVSPost2010Prop39
140
1.0
102
RTVSPost2010PropOp39
 70
     1
102
RTVSPost2010Prop40
 90
        0
102
RTVSPost2010PropOp40
 70
     1
102
RTVSPost2010Prop41ColorIndex
 90
       18
102
RTVSPost2010Prop41ColorRGB
 90
        0
102
RTVSPost2010PropOp41
 70
     1
102
RTVSPost2010Prop42
 90
       50
102
RTVSPost2010PropOp42
 70
     1
102
RTVSPost2010Prop43
 90
        3
102
RTVSPost2010PropOp43
 70
     1
102
RTVSPost2010Prop44ColorIndex
 90
        5
102
RTVSPost2010Prop44ColorRGB
 90
      255
102
RTVSPost2010PropOp44
 70
     1
102
RTVSPost2010Prop45
280
     0
102
RTVSPost2010PropOp45
 70
     1
102
RTVSPost2010Prop46
 90
       50
102
RTVSPost2010PropOp46
 70
     1
102
RTVSPost2010Prop47
 90
       50
102
RTVSPost2010PropOp47
 70
     1
102
RTVSPost2010Prop48
 90
       50
102
RTVSPost2010PropOp48
 70
     1
102
RTVSPost2010Prop49
280
     0
102
RTVSPost2010PropOp49
 70
     1
102
RTVSPost2010Prop50
 90
       50
102
RTVSPost2010PropOp50
 70
     1
102
RTVSPost2010Prop51ColorIndex
 90
      256
102
RTVSPost2010Prop51ColorRGB
 90
-16777216
102
RTVSPost2010PropOp51
 70
     0
102
RTVSPost2010Prop52
140
1.0
102
RTVSPost2010PropOp52
 70
     0
102
RTVSPost2010Prop53
 90
        2
102
RTVSPost2010PropOp53
 70
     1
102
RTVSPost2010Prop54
  1
strokes_ogs.tif
102
RTVSPost2010PropOp54
 70
     1
102
RTVSPost2010Prop55
280
     0
102
RTVSPost2010PropOp55
 70
     1
102
RTVSPost2010Prop56
140
1.0
102
RTVSPost2010PropOp56
 70
     1
102
RTVSPost2010Prop57
140
1.0
102
RTVSPost2010PropOp57
 70
     1
  0
XRECORD
  5
307
102
{ACAD_REACTORS
330
306
102
}
330
306
100
AcDbXrecord
280
     1
102
RTVSPropertyOp0
 70
     1
102
RTVSPropertyOp1
 70
     1
102
RTVSPropertyOp2
 70
     1
102
RTVSPropertyOp3
 70
     1
102
RTVSPropertyOp4
 70
     1
102
RTVSPropertyOp5
 70
     1
102
RTVSPropertyOp6
 70
     1
102
RTVSPropertyOp7
 70
     1
102
RTVSPropertyOp8
 70
     1
102
RTVSPropertyOp9
 70
     1
102
RTVSPropertyOp10
 70
     1
102
RTVSPropertyOp11
 70
     1
102
RTVSPropertyOp12
 70
     1
102
RTVSPropertyOp13
 70
     1
102
RTVSPropertyOp14
 70
     1
102
RTVSPropertyOp15
 70
     1
102
RTVSPropertyOp16
 70
     1
102
RTVSPropertyOp17
 70
     1
102
RTVSPropertyOp18
 70
     1
102
RTVSPropertyOp19
 70
     1
102
RTVSPropertyOp20
 70
     1
102
RTVSPropertyOp21
 70
     1
102
RTVSPropertyOp22
 70
     1
102
RTVSPropertyOp23
 70
     1
102
RTVSPropertyOp24
 70
     1
102
RTVSPropertyOp25
 70
     1
102
RTVSPropertyOp26
 70
     1
102
RTVSPropertyOp27
 70
     1
102
RTVSPropertyOp28
 70
     1
102
RTVSPropertyOp29
 70
     1
102
RTVSPropertyOp30
 70
     1
102
RTVSPropertyOp31
 70
     1
102
RTVSPropertyOp32
 70
     1
102
RTVSPropertyOp33
 70
     1
102
RTVSPropertyOp34
 70
     1
102
RTVSPropertyOp35
 70
     1
102
RTVSPropertyOp36
 70
     1
102
RTVSPropertyOp37
 70
     1
102
RTVSPropertyOp38
 70
     1
102
RTVSPropertyOp39
 70
     1
102
RTVSPropertyOp40
 70
     1
102
RTVSPropertyOp41
 70
     1
102
RTVSPropertyOp42
 70
     1
102
RTVSPropertyOp43
 70
     1
102
RTVSPropertyOp44
 70
     1
102
RTVSPropertyOp45
 70
     1
102
RTVSPropertyOp46
 70
     1
102
RTVSPropertyOp47
 70
     1
102
RTVSPropertyOp48
 70
     1
102
RTVSPropertyOp49
 70
     1
102
RTVSPropertyOp50
 70
     1
102
RTVSPropertyOp51
 70
     0
102
RTVSPropertyOp52
 70
     0
102
RTVSPropertyOp53
 70
     1
102
RTVSPropertyOp54
 70
     1
102
RTVSPropertyOp55
 70
     1
102
RTVSPropertyOp56
 70
     1
102
RTVSPropertyOp57
 70
     1
102
RTVSPost2010Prop28
280
     0
102
RTVSPost2010PropOp28
 70
     1
102
RTVSPost2010Prop29
280
     1
102
RTVSPost2010PropOp29
 70
     1
102
RTVSPost2010Prop30
280
     1
102
RTVSPost2010PropOp30
 70
     1
102
RTVSPost2010Prop31
280
     0
102
RTVSPost2010PropOp31
 70
     1
102
RTVSPost2010Prop32
280
     0
102
RTVSPost2010PropOp32
 70
     1
102
RTVSPost2010Prop33
280
     0
102
RTVSPost2010PropOp33
 70
     1
102
RTVSPost2010Prop34
280
     0
102
RTVSPost2010PropOp34
 70
     1
102
RTVSPost2010Prop35
280
     0
102
RTVSPost2010PropOp35
 70
     1
102
RTVSPost2010Prop36
280
     0
102
RTVSPost2010PropOp36
 70
     1
102
RTVSPost2010Prop37
 90
       50
102
RTVSPost2010PropOp37
 70
     1
102
RTVSPost2010Prop38
140
0.0
102
RTVSPost2010PropOp38
 70
     1
102
RTVSPost2010Prop39
140
1.0
102
RTVSPost2010PropOp39
 70
     1
102
RTVSPost2010Prop40
 90
        0
102
RTVSPost2010PropOp40
 70
     1
102
RTVSPost2010Prop41ColorIndex
 90
       18
102
RTVSPost2010Prop41ColorRGB
 90
        0
102
RTVSPost2010PropOp41
 70
     1
102
RTVSPost2010Prop42
 90
       50
102
RTVSPost2010PropOp42
 70
     1
102
RTVSPost2010Prop43
 90
        3
102
RTVSPost2010PropOp43
 70
     1
102
RTVSPost2010Prop44ColorIndex
 90
        5
102
RTVSPost2010Prop44ColorRGB
 90
      255
102
RTVSPost2010PropOp44
 70
     1
102
RTVSPost2010Prop45
280
     0
102
RTVSPost2010PropOp45
 70
     1
102
RTVSPost2010Prop46
 90
       50
102
RTVSPost2010PropOp46
 70
     1
102
RTVSPost2010Prop47
 90
       50
102
RTVSPost2010PropOp47
 70
     1
102
RTVSPost2010Prop48
 90
       50
102
RTVSPost2010PropOp48
 70
     1
102
RTVSPost2010Prop49
280
     0
102
RTVSPost2010PropOp49
 70
     1
102
RTVSPost2010Prop50
 90
       50
102
RTVSPost2010PropOp50
 70
     1
102
RTVSPost2010Prop51ColorIndex
 90
      256
102
RTVSPost2010Prop51ColorRGB
 90
-16777216
102
RTVSPost2010PropOp51
 70
     0
102
RTVSPost2010Prop52
140
1.0
102
RTVSPost2010PropOp52
 70
     0
102
RTVSPost2010Prop53
 90
        2
102
RTVSPost2010PropOp53
 70
     1
102
RTVSPost2010Prop54
  1
strokes_ogs.tif
102
RTVSPost2010PropOp54
 70
     1
102
RTVSPost2010Prop55
280
     0
102
RTVSPost2010PropOp55
 70
     1
102
RTVSPost2010Prop56
140
1.0
102
RTVSPost2010PropOp56
 70
     1
102
RTVSPost2010Prop57
140
1.0
102
RTVSPost2010PropOp57
 70
     1
  0
XRECORD
  5
30F
102
{ACAD_REACTORS
330
30E
102
}
330
30E
100
AcDbXrecord
280
     1
102
RTVSPropertyOp0
 70
     1
102
RTVSPropertyOp1
 70
     1
102
RTVSPropertyOp2
 70
     1
102
RTVSPropertyOp3
 70
     1
102
RTVSPropertyOp4
 70
     1
102
RTVSPropertyOp5
 70
     1
102
RTVSPropertyOp6
 70
     1
102
RTVSPropertyOp7
 70
     1
102
RTVSPropertyOp8
 70
     1
102
RTVSPropertyOp9
 70
     1
102
RTVSPropertyOp10
 70
     1
102
RTVSPropertyOp11
 70
     1
102
RTVSPropertyOp12
 70
     1
102
RTVSPropertyOp13
 70
     1
102
RTVSPropertyOp14
 70
     1
102
RTVSPropertyOp15
 70
     1
102
RTVSPropertyOp16
 70
     1
102
RTVSPropertyOp17
 70
     1
102
RTVSPropertyOp18
 70
     1
102
RTVSPropertyOp19
 70
     1
102
RTVSPropertyOp20
 70
     1
102
RTVSPropertyOp21
 70
     1
102
RTVSPropertyOp22
 70
     1
102
RTVSPropertyOp23
 70
     1
102
RTVSPropertyOp24
 70
     1
102
RTVSPropertyOp25
 70
     1
102
RTVSPropertyOp26
 70
     1
102
RTVSPropertyOp27
 70
     1
102
RTVSPropertyOp28
 70
     1
102
RTVSPropertyOp29
 70
     1
102
RTVSPropertyOp30
 70
     1
102
RTVSPropertyOp31
 70
     1
102
RTVSPropertyOp32
 70
     1
102
RTVSPropertyOp33
 70
     1
102
RTVSPropertyOp34
 70
     1
102
RTVSPropertyOp35
 70
     1
102
RTVSPropertyOp36
 70
     1
102
RTVSPropertyOp37
 70
     1
102
RTVSPropertyOp38
 70
     1
102
RTVSPropertyOp39
 70
     1
102
RTVSPropertyOp40
 70
     1
102
RTVSPropertyOp41
 70
     1
102
RTVSPropertyOp42
 70
     1
102
RTVSPropertyOp43
 70
     1
102
RTVSPropertyOp44
 70
     1
102
RTVSPropertyOp45
 70
     1
102
RTVSPropertyOp46
 70
     1
102
RTVSPropertyOp47
 70
     1
102
RTVSPropertyOp48
 70
     1
102
RTVSPropertyOp49
 70
     1
102
RTVSPropertyOp50
 70
     1
102
RTVSPropertyOp51
 70
     0
102
RTVSPropertyOp52
 70
     0
102
RTVSPropertyOp53
 70
     1
102
RTVSPropertyOp54
 70
     1
102
RTVSPropertyOp55
 70
     1
102
RTVSPropertyOp56
 70
     1
102
RTVSPropertyOp57
 70
     1
102
RTVSPost2010Prop28
280
     0
102
RTVSPost2010PropOp28
 70
     1
102
RTVSPost2010Prop29
280
     1
102
RTVSPost2010PropOp29
 70
     1
102
RTVSPost2010Prop30
280
     1
102
RTVSPost2010PropOp30
 70
     1
102
RTVSPost2010Prop31
280
     0
102
RTVSPost2010PropOp31
 70
     1
102
RTVSPost2010Prop32
280
     0
102
RTVSPost2010PropOp32
 70
     1
102
RTVSPost2010Prop33
280
     0
102
RTVSPost2010PropOp33
 70
     1
102
RTVSPost2010Prop34
280
     0
102
RTVSPost2010PropOp34
 70
     1
102
RTVSPost2010Prop35
280
     0
102
RTVSPost2010PropOp35
 70
     1
102
RTVSPost2010Prop36
280
     0
102
RTVSPost2010PropOp36
 70
     1
102
RTVSPost2010Prop37
 90
       50
102
RTVSPost2010PropOp37
 70
     1
102
RTVSPost2010Prop38
140
0.0
102
RTVSPost2010PropOp38
 70
     1
102
RTVSPost2010Prop39
140
1.0
102
RTVSPost2010PropOp39
 70
     1
102
RTVSPost2010Prop40
 90
        0
102
RTVSPost2010PropOp40
 70
     1
102
RTVSPost2010Prop41ColorIndex
 90
       18
102
RTVSPost2010Prop41ColorRGB
 90
        0
102
RTVSPost2010PropOp41
 70
     1
102
RTVSPost2010Prop42
 90
       50
102
RTVSPost2010PropOp42
 70
     1
102
RTVSPost2010Prop43
 90
        3
102
RTVSPost2010PropOp43
 70
     1
102
RTVSPost2010Prop44ColorIndex
 90
        5
102
RTVSPost2010Prop44ColorRGB
 90
      255
102
RTVSPost2010PropOp44
 70
     1
102
RTVSPost2010Prop45
280
     0
102
RTVSPost2010PropOp45
 70
     1
102
RTVSPost2010Prop46
 90
       50
102
RTVSPost2010PropOp46
 70
     1
102
RTVSPost2010Prop47
 90
       50
102
RTVSPost2010PropOp47
 70
     1
102
RTVSPost2010Prop48
 90
       50
102
RTVSPost2010PropOp48
 70
     1
102
RTVSPost2010Prop49
280
     0
102
RTVSPost2010PropOp49
 70
     1
102
RTVSPost2010Prop50
 90
       50
102
RTVSPost2010PropOp50
 70
     1
102
RTVSPost2010Prop51ColorIndex
 90
      256
102
RTVSPost2010Prop51ColorRGB
 90
-16777216
102
RTVSPost2010PropOp51
 70
     0
102
RTVSPost2010Prop52
140
1.0
102
RTVSPost2010PropOp52
 70
     0
102
RTVSPost2010Prop53
 90
        2
102
RTVSPost2010PropOp53
 70
     1
102
RTVSPost2010Prop54
  1
strokes_ogs.tif
102
RTVSPost2010PropOp54
 70
     1
102
RTVSPost2010Prop55
280
     0
102
RTVSPost2010PropOp55
 70
     1
102
RTVSPost2010Prop56
140
1.0
102
RTVSPost2010PropOp56
 70
     1
102
RTVSPost2010Prop57
140
1.0
102
RTVSPost2010PropOp57
 70
     1
  0
XRECORD
  5
303
102
{ACAD_REACTORS
330
302
102
}
330
302
100
AcDbXrecord
280
     1
102
RTVSPropertyOp0
 70
     1
102
RTVSPropertyOp1
 70
     1
102
RTVSPropertyOp2
 70
     1
102
RTVSPropertyOp3
 70
     1
102
RTVSPropertyOp4
 70
     1
102
RTVSPropertyOp5
 70
     1
102
RTVSPropertyOp6
 70
     1
102
RTVSPropertyOp7
 70
     1
102
RTVSPropertyOp8
 70
     1
102
RTVSPropertyOp9
 70
     1
102
RTVSPropertyOp10
 70
     1
102
RTVSPropertyOp11
 70
     1
102
RTVSPropertyOp12
 70
     1
102
RTVSPropertyOp13
 70
     1
102
RTVSPropertyOp14
 70
     1
102
RTVSPropertyOp15
 70
     1
102
RTVSPropertyOp16
 70
     1
102
RTVSPropertyOp17
 70
     1
102
RTVSPropertyOp18
 70
     1
102
RTVSPropertyOp19
 70
     1
102
RTVSPropertyOp20
 70
     1
102
RTVSPropertyOp21
 70
     1
102
RTVSPropertyOp22
 70
     1
102
RTVSPropertyOp23
 70
     1
102
RTVSPropertyOp24
 70
     1
102
RTVSPropertyOp25
 70
     1
102
RTVSPropertyOp26
 70
     1
102
RTVSPropertyOp27
 70
     1
102
RTVSPropertyOp28
 70
     1
102
RTVSPropertyOp29
 70
     1
102
RTVSPropertyOp30
 70
     1
102
RTVSPropertyOp31
 70
     1
102
RTVSPropertyOp32
 70
     1
102
RTVSPropertyOp33
 70
     1
102
RTVSPropertyOp34
 70
     1
102
RTVSPropertyOp35
 70
     1
102
RTVSPropertyOp36
 70
     1
102
RTVSPropertyOp37
 70
     1
102
RTVSPropertyOp38
 70
     1
102
RTVSPropertyOp39
 70
     1
102
RTVSPropertyOp40
 70
     1
102
RTVSPropertyOp41
 70
     1
102
RTVSPropertyOp42
 70
     1
102
RTVSPropertyOp43
 70
     1
102
RTVSPropertyOp44
 70
     1
102
RTVSPropertyOp45
 70
     1
102
RTVSPropertyOp46
 70
     1
102
RTVSPropertyOp47
 70
     1
102
RTVSPropertyOp48
 70
     1
102
RTVSPropertyOp49
 70
     1
102
RTVSPropertyOp50
 70
     1
102
RTVSPropertyOp51
 70
     0
102
RTVSPropertyOp52
 70
     0
102
RTVSPropertyOp53
 70
     1
102
RTVSPropertyOp54
 70
     1
102
RTVSPropertyOp55
 70
     1
102
RTVSPropertyOp56
 70
     1
102
RTVSPropertyOp57
 70
     1
102
RTVSPost2010Prop28
280
     0
102
RTVSPost2010PropOp28
 70
     1
102
RTVSPost2010Prop29
280
     1
102
RTVSPost2010PropOp29
 70
     1
102
RTVSPost2010Prop30
280
     1
102
RTVSPost2010PropOp30
 70
     1
102
RTVSPost2010Prop31
280
     0
102
RTVSPost2010PropOp31
 70
     1
102
RTVSPost2010Prop32
280
     0
102
RTVSPost2010PropOp32
 70
     1
102
RTVSPost2010Prop33
280
     0
102
RTVSPost2010PropOp33
 70
     1
102
RTVSPost2010Prop34
280
     0
102
RTVSPost2010PropOp34
 70
     1
102
RTVSPost2010Prop35
280
     0
102
RTVSPost2010PropOp35
 70
     1
102
RTVSPost2010Prop36
280
     0
102
RTVSPost2010PropOp36
 70
     1
102
RTVSPost2010Prop37
 90
       50
102
RTVSPost2010PropOp37
 70
     1
102
RTVSPost2010Prop38
140
0.0
102
RTVSPost2010PropOp38
 70
     1
102
RTVSPost2010Prop39
140
1.0
102
RTVSPost2010PropOp39
 70
     1
102
RTVSPost2010Prop40
 90
        0
102
RTVSPost2010PropOp40
 70
     1
102
RTVSPost2010Prop41ColorIndex
 90
       18
102
RTVSPost2010Prop41ColorRGB
 90
        0
102
RTVSPost2010PropOp41
 70
     1
102
RTVSPost2010Prop42
 90
       50
102
RTVSPost2010PropOp42
 70
     1
102
RTVSPost2010Prop43
 90
        3
102
RTVSPost2010PropOp43
 70
     1
102
RTVSPost2010Prop44ColorIndex
 90
        5
102
RTVSPost2010Prop44ColorRGB
 90
      255
102
RTVSPost2010PropOp44
 70
     1
102
RTVSPost2010Prop45
280
     0
102
RTVSPost2010PropOp45
 70
     1
102
RTVSPost2010Prop46
 90
       50
102
RTVSPost2010PropOp46
 70
     1
102
RTVSPost2010Prop47
 90
       50
102
RTVSPost2010PropOp47
 70
     1
102
RTVSPost2010Prop48
 90
       50
102
RTVSPost2010PropOp48
 70
     1
102
RTVSPost2010Prop49
280
     0
102
RTVSPost2010PropOp49
 70
     1
102
RTVSPost2010Prop50
 90
       50
102
RTVSPost2010PropOp50
 70
     1
102
RTVSPost2010Prop51ColorIndex
 90
      256
102
RTVSPost2010Prop51ColorRGB
 90
-16777216
102
RTVSPost2010PropOp51
 70
     0
102
RTVSPost2010Prop52
140
1.0
102
RTVSPost2010PropOp52
 70
     0
102
RTVSPost2010Prop53
 90
        2
102
RTVSPost2010PropOp53
 70
     1
102
RTVSPost2010Prop54
  1
strokes_ogs.tif
102
RTVSPost2010PropOp54
 70
     1
102
RTVSPost2010Prop55
280
     0
102
RTVSPost2010PropOp55
 70
     1
102
RTVSPost2010Prop56
140
1.0
102
RTVSPost2010PropOp56
 70
     1
102
RTVSPost2010Prop57
140
1.0
102
RTVSPost2010PropOp57
 70
     1
  0
XRECORD
  5
305
102
{ACAD_REACTORS
330
304
102
}
330
304
100
AcDbXrecord
280
     1
102
RTVSPropertyOp0
 70
     1
102
RTVSPropertyOp1
 70
     1
102
RTVSPropertyOp2
 70
     1
102
RTVSPropertyOp3
 70
     1
102
RTVSPropertyOp4
 70
     1
102
RTVSPropertyOp5
 70
     1
102
RTVSPropertyOp6
 70
     1
102
RTVSPropertyOp7
 70
     1
102
RTVSPropertyOp8
 70
     1
102
RTVSPropertyOp9
 70
     1
102
RTVSPropertyOp10
 70
     1
102
RTVSPropertyOp11
 70
     1
102
RTVSPropertyOp12
 70
     1
102
RTVSPropertyOp13
 70
     1
102
RTVSPropertyOp14
 70
     1
102
RTVSPropertyOp15
 70
     1
102
RTVSPropertyOp16
 70
     1
102
RTVSPropertyOp17
 70
     1
102
RTVSPropertyOp18
 70
     1
102
RTVSPropertyOp19
 70
     1
102
RTVSPropertyOp20
 70
     1
102
RTVSPropertyOp21
 70
     1
102
RTVSPropertyOp22
 70
     1
102
RTVSPropertyOp23
 70
     1
102
RTVSPropertyOp24
 70
     1
102
RTVSPropertyOp25
 70
     1
102
RTVSPropertyOp26
 70
     1
102
RTVSPropertyOp27
 70
     1
102
RTVSPropertyOp28
 70
     1
102
RTVSPropertyOp29
 70
     1
102
RTVSPropertyOp30
 70
     1
102
RTVSPropertyOp31
 70
     1
102
RTVSPropertyOp32
 70
     1
102
RTVSPropertyOp33
 70
     1
102
RTVSPropertyOp34
 70
     1
102
RTVSPropertyOp35
 70
     1
102
RTVSPropertyOp36
 70
     1
102
RTVSPropertyOp37
 70
     1
102
RTVSPropertyOp38
 70
     1
102
RTVSPropertyOp39
 70
     1
102
RTVSPropertyOp40
 70
     1
102
RTVSPropertyOp41
 70
     1
102
RTVSPropertyOp42
 70
     1
102
RTVSPropertyOp43
 70
     1
102
RTVSPropertyOp44
 70
     1
102
RTVSPropertyOp45
 70
     1
102
RTVSPropertyOp46
 70
     1
102
RTVSPropertyOp47
 70
     1
102
RTVSPropertyOp48
 70
     1
102
RTVSPropertyOp49
 70
     1
102
RTVSPropertyOp50
 70
     1
102
RTVSPropertyOp51
 70
     0
102
RTVSPropertyOp52
 70
     0
102
RTVSPropertyOp53
 70
     1
102
RTVSPropertyOp54
 70
     1
102
RTVSPropertyOp55
 70
     1
102
RTVSPropertyOp56
 70
     1
102
RTVSPropertyOp57
 70
     1
102
RTVSPost2010Prop28
280
     0
102
RTVSPost2010PropOp28
 70
     1
102
RTVSPost2010Prop29
280
     1
102
RTVSPost2010PropOp29
 70
     1
102
RTVSPost2010Prop30
280
     1
102
RTVSPost2010PropOp30
 70
     1
102
RTVSPost2010Prop31
280
     0
102
RTVSPost2010PropOp31
 70
     1
102
RTVSPost2010Prop32
280
     0
102
RTVSPost2010PropOp32
 70
     1
102
RTVSPost2010Prop33
280
     0
102
RTVSPost2010PropOp33
 70
     1
102
RTVSPost2010Prop34
280
     0
102
RTVSPost2010PropOp34
 70
     1
102
RTVSPost2010Prop35
280
     0
102
RTVSPost2010PropOp35
 70
     1
102
RTVSPost2010Prop36
280
     0
102
RTVSPost2010PropOp36
 70
     1
102
RTVSPost2010Prop37
 90
       50
102
RTVSPost2010PropOp37
 70
     1
102
RTVSPost2010Prop38
140
0.0
102
RTVSPost2010PropOp38
 70
     1
102
RTVSPost2010Prop39
140
1.0
102
RTVSPost2010PropOp39
 70
     1
102
RTVSPost2010Prop40
 90
        0
102
RTVSPost2010PropOp40
 70
     1
102
RTVSPost2010Prop41ColorIndex
 90
       18
102
RTVSPost2010Prop41ColorRGB
 90
        0
102
RTVSPost2010PropOp41
 70
     1
102
RTVSPost2010Prop42
 90
       50
102
RTVSPost2010PropOp42
 70
     1
102
RTVSPost2010Prop43
 90
        3
102
RTVSPost2010PropOp43
 70
     1
102
RTVSPost2010Prop44ColorIndex
 90
        5
102
RTVSPost2010Prop44ColorRGB
 90
      255
102
RTVSPost2010PropOp44
 70
     1
102
RTVSPost2010Prop45
280
     0
102
RTVSPost2010PropOp45
 70
     1
102
RTVSPost2010Prop46
 90
       50
102
RTVSPost2010PropOp46
 70
     1
102
RTVSPost2010Prop47
 90
       50
102
RTVSPost2010PropOp47
 70
     1
102
RTVSPost2010Prop48
 90
       50
102
RTVSPost2010PropOp48
 70
     1
102
RTVSPost2010Prop49
280
     0
102
RTVSPost2010PropOp49
 70
     1
102
RTVSPost2010Prop50
 90
       50
102
RTVSPost2010PropOp50
 70
     1
102
RTVSPost2010Prop51ColorIndex
 90
      256
102
RTVSPost2010Prop51ColorRGB
 90
-16777216
102
RTVSPost2010PropOp51
 70
     0
102
RTVSPost2010Prop52
140
1.0
102
RTVSPost2010PropOp52
 70
     0
102
RTVSPost2010Prop53
 90
        2
102
RTVSPost2010PropOp53
 70
     1
102
RTVSPost2010Prop54
  1
strokes_ogs.tif
102
RTVSPost2010PropOp54
 70
     1
102
RTVSPost2010Prop55
280
     0
102
RTVSPost2010PropOp55
 70
     1
102
RTVSPost2010Prop56
140
1.0
102
RTVSPost2010PropOp56
 70
     1
102
RTVSPost2010Prop57
140
1.0
102
RTVSPost2010PropOp57
 70
     1
  0
XRECORD
  5
315
102
{ACAD_REACTORS
330
314
102
}
330
314
100
AcDbXrecord
280
     1
102
RTVSPropertyOp0
 70
     0
102
RTVSPropertyOp1
 70
     0
102
RTVSPropertyOp2
 70
     0
102
RTVSPropertyOp3
 70
     0
102
RTVSPropertyOp4
 70
     0
102
RTVSPropertyOp5
 70
     0
102
RTVSPropertyOp6
 70
     0
102
RTVSPropertyOp7
 70
     0
102
RTVSPropertyOp8
 70
     0
102
RTVSPropertyOp9
 70
     0
102
RTVSPropertyOp10
 70
     0
102
RTVSPropertyOp11
 70
     0
102
RTVSPropertyOp12
 70
     0
102
RTVSPropertyOp13
 70
     0
102
RTVSPropertyOp14
 70
     2
102
RTVSPropertyOp15
 70
     0
102
RTVSPropertyOp16
 70
     0
102
RTVSPropertyOp17
 70
     0
102
RTVSPropertyOp18
 70
     0
102
RTVSPropertyOp19
 70
     0
102
RTVSPropertyOp20
 70
     0
102
RTVSPropertyOp21
 70
     0
102
RTVSPropertyOp22
 70
     0
102
RTVSPropertyOp23
 70
     0
102
RTVSPropertyOp24
 70
     0
102
RTVSPropertyOp25
 70
     0
102
RTVSPropertyOp26
 70
     0
102
RTVSPropertyOp27
 70
     0
102
RTVSPropertyOp28
 70
     0
102
RTVSPropertyOp29
 70
     0
102
RTVSPropertyOp30
 70
     0
102
RTVSPropertyOp31
 70
     0
102
RTVSPropertyOp32
 70
     0
102
RTVSPropertyOp33
 70
     0
102
RTVSPropertyOp34
 70
     0
102
RTVSPropertyOp35
 70
     0
102
RTVSPropertyOp36
 70
     0
102
RTVSPropertyOp37
 70
     0
102
RTVSPropertyOp38
 70
     0
102
RTVSPropertyOp39
 70
     0
102
RTVSPropertyOp40
 70
     0
102
RTVSPropertyOp41
 70
     0
102
RTVSPropertyOp42
 70
     0
102
RTVSPropertyOp43
 70
     0
102
RTVSPropertyOp44
 70
     0
102
RTVSPropertyOp45
 70
     0
102
RTVSPropertyOp46
 70
     0
102
RTVSPropertyOp47
 70
     0
102
RTVSPropertyOp48
 70
     0
102
RTVSPropertyOp49
 70
     0
102
RTVSPropertyOp50
 70
     0
102
RTVSPropertyOp51
 70
     0
102
RTVSPropertyOp52
 70
     0
102
RTVSPropertyOp53
 70
     0
102
RTVSPropertyOp54
 70
     0
102
RTVSPropertyOp55
 70
     0
102
RTVSPropertyOp56
 70
     0
102
RTVSPropertyOp57
 70
     0
102
RTVSPost2010Prop28
280
     0
102
RTVSPost2010PropOp28
 70
     0
102
RTVSPost2010Prop29
280
     1
102
RTVSPost2010PropOp29
 70
     0
102
RTVSPost2010Prop30
280
     1
102
RTVSPost2010PropOp30
 70
     0
102
RTVSPost2010Prop31
280
     0
102
RTVSPost2010PropOp31
 70
     0
102
RTVSPost2010Prop32
280
     0
102
RTVSPost2010PropOp32
 70
     0
102
RTVSPost2010Prop33
280
     0
102
RTVSPost2010PropOp33
 70
     0
102
RTVSPost2010Prop34
280
     0
102
RTVSPost2010PropOp34
 70
     0
102
RTVSPost2010Prop35
280
     0
102
RTVSPost2010PropOp35
 70
     0
102
RTVSPost2010Prop36
280
     0
102
RTVSPost2010PropOp36
 70
     0
102
RTVSPost2010Prop37
 90
       50
102
RTVSPost2010PropOp37
 70
     0
102
RTVSPost2010Prop38
140
0.0
102
RTVSPost2010PropOp38
 70
     0
102
RTVSPost2010Prop39
140
1.0
102
RTVSPost2010PropOp39
 70
     0
102
RTVSPost2010Prop40
 90
        0
102
RTVSPost2010PropOp40
 70
     0
102
RTVSPost2010Prop41ColorIndex
 90
       18
102
RTVSPost2010Prop41ColorRGB
 90
        0
102
RTVSPost2010PropOp41
 70
     0
102
RTVSPost2010Prop42
 90
       50
102
RTVSPost2010PropOp42
 70
     0
102
RTVSPost2010Prop43
 90
        3
102
RTVSPost2010PropOp43
 70
     0
102
RTVSPost2010Prop44ColorIndex
 90
        5
102
RTVSPost2010Prop44ColorRGB
 90
      255
102
RTVSPost2010PropOp44
 70
     0
102
RTVSPost2010Prop45
280
     0
102
RTVSPost2010PropOp45
 70
     0
102
RTVSPost2010Prop46
 90
       50
102
RTVSPost2010PropOp46
 70
     0
102
RTVSPost2010Prop47
 90
       50
102
RTVSPost2010PropOp47
 70
     0
102
RTVSPost2010Prop48
 90
       50
102
RTVSPost2010PropOp48
 70
     0
102
RTVSPost2010Prop49
280
     0
102
RTVSPost2010PropOp49
 70
     0
102
RTVSPost2010Prop50
 90
       50
102
RTVSPost2010PropOp50
 70
     0
102
RTVSPost2010Prop51ColorIndex
 90
      256
102
RTVSPost2010Prop51ColorRGB
 90
-16777216
102
RTVSPost2010PropOp51
 70
     0
102
RTVSPost2010Prop52
140
1.0
102
RTVSPost2010PropOp52
 70
     0
102
RTVSPost2010Prop53
 90
        2
102
RTVSPost2010PropOp53
 70
     0
102
RTVSPost2010Prop54
  1
strokes_ogs.tif
102
RTVSPost2010PropOp54
 70
     0
102
RTVSPost2010Prop55
280
     0
102
RTVSPost2010PropOp55
 70
     0
102
RTVSPost2010Prop56
140
1.0
102
RTVSPost2010PropOp56
 70
     0
102
RTVSPost2010Prop57
140
1.0
102
RTVSPost2010PropOp57
 70
     0
  0
XRECORD
  5
30D
102
{ACAD_REACTORS
330
30C
102
}
330
30C
100
AcDbXrecord
280
     1
102
RTVSPropertyOp0
 70
     1
102
RTVSPropertyOp1
 70
     1
102
RTVSPropertyOp2
 70
     1
102
RTVSPropertyOp3
 70
     1
102
RTVSPropertyOp4
 70
     1
102
RTVSPropertyOp5
 70
     1
102
RTVSPropertyOp6
 70
     1
102
RTVSPropertyOp7
 70
     1
102
RTVSPropertyOp8
 70
     1
102
RTVSPropertyOp9
 70
     1
102
RTVSPropertyOp10
 70
     1
102
RTVSPropertyOp11
 70
     1
102
RTVSPropertyOp12
 70
     1
102
RTVSPropertyOp13
 70
     1
102
RTVSPropertyOp14
 70
     1
102
RTVSPropertyOp15
 70
     1
102
RTVSPropertyOp16
 70
     1
102
RTVSPropertyOp17
 70
     1
102
RTVSPropertyOp18
 70
     1
102
RTVSPropertyOp19
 70
     1
102
RTVSPropertyOp20
 70
     1
102
RTVSPropertyOp21
 70
     1
102
RTVSPropertyOp22
 70
     1
102
RTVSPropertyOp23
 70
     1
102
RTVSPropertyOp24
 70
     1
102
RTVSPropertyOp25
 70
     1
102
RTVSPropertyOp26
 70
     1
102
RTVSPropertyOp27
 70
     1
102
RTVSPropertyOp28
 70
     1
102
RTVSPropertyOp29
 70
     1
102
RTVSPropertyOp30
 70
     1
102
RTVSPropertyOp31
 70
     1
102
RTVSPropertyOp32
 70
     1
102
RTVSPropertyOp33
 70
     1
102
RTVSPropertyOp34
 70
     1
102
RTVSPropertyOp35
 70
     1
102
RTVSPropertyOp36
 70
     1
102
RTVSPropertyOp37
 70
     1
102
RTVSPropertyOp38
 70
     1
102
RTVSPropertyOp39
 70
     1
102
RTVSPropertyOp40
 70
     1
102
RTVSPropertyOp41
 70
     1
102
RTVSPropertyOp42
 70
     1
102
RTVSPropertyOp43
 70
     1
102
RTVSPropertyOp44
 70
     1
102
RTVSPropertyOp45
 70
     1
102
RTVSPropertyOp46
 70
     1
102
RTVSPropertyOp47
 70
     1
102
RTVSPropertyOp48
 70
     1
102
RTVSPropertyOp49
 70
     1
102
RTVSPropertyOp50
 70
     1
102
RTVSPropertyOp51
 70
     0
102
RTVSPropertyOp52
 70
     0
102
RTVSPropertyOp53
 70
     1
102
RTVSPropertyOp54
 70
     1
102
RTVSPropertyOp55
 70
     1
102
RTVSPropertyOp56
 70
     1
102
RTVSPropertyOp57
 70
     1
102
RTVSPost2010Prop28
280
     0
102
RTVSPost2010PropOp28
 70
     1
102
RTVSPost2010Prop29
280
     1
102
RTVSPost2010PropOp29
 70
     1
102
RTVSPost2010Prop30
280
     1
102
RTVSPost2010PropOp30
 70
     1
102
RTVSPost2010Prop31
280
     0
102
RTVSPost2010PropOp31
 70
     1
102
RTVSPost2010Prop32
280
     0
102
RTVSPost2010PropOp32
 70
     1
102
RTVSPost2010Prop33
280
     0
102
RTVSPost2010PropOp33
 70
     1
102
RTVSPost2010Prop34
280
     0
102
RTVSPost2010PropOp34
 70
     1
102
RTVSPost2010Prop35
280
     0
102
RTVSPost2010PropOp35
 70
     1
102
RTVSPost2010Prop36
280
     0
102
RTVSPost2010PropOp36
 70
     1
102
RTVSPost2010Prop37
 90
       50
102
RTVSPost2010PropOp37
 70
     1
102
RTVSPost2010Prop38
140
0.0
102
RTVSPost2010PropOp38
 70
     1
102
RTVSPost2010Prop39
140
1.0
102
RTVSPost2010PropOp39
 70
     1
102
RTVSPost2010Prop40
 90
        0
102
RTVSPost2010PropOp40
 70
     1
102
RTVSPost2010Prop41ColorIndex
 90
       18
102
RTVSPost2010Prop41ColorRGB
 90
        0
102
RTVSPost2010PropOp41
 70
     1
102
RTVSPost2010Prop42
 90
       50
102
RTVSPost2010PropOp42
 70
     1
102
RTVSPost2010Prop43
 90
        3
102
RTVSPost2010PropOp43
 70
     1
102
RTVSPost2010Prop44ColorIndex
 90
        5
102
RTVSPost2010Prop44ColorRGB
 90
      255
102
RTVSPost2010PropOp44
 70
     1
102
RTVSPost2010Prop45
280
     0
102
RTVSPost2010PropOp45
 70
     1
102
RTVSPost2010Prop46
 90
       50
102
RTVSPost2010PropOp46
 70
     1
102
RTVSPost2010Prop47
 90
       50
102
RTVSPost2010PropOp47
 70
     1
102
RTVSPost2010Prop48
 90
       50
102
RTVSPost2010PropOp48
 70
     1
102
RTVSPost2010Prop49
280
     0
102
RTVSPost2010PropOp49
 70
     1
102
RTVSPost2010Prop50
 90
       50
102
RTVSPost2010PropOp50
 70
     1
102
RTVSPost2010Prop51ColorIndex
 90
      256
102
RTVSPost2010Prop51ColorRGB
 90
-16777216
102
RTVSPost2010PropOp51
 70
     0
102
RTVSPost2010Prop52
140
1.0
102
RTVSPost2010PropOp52
 70
     0
102
RTVSPost2010Prop53
 90
        2
102
RTVSPost2010PropOp53
 70
     1
102
RTVSPost2010Prop54
  1
strokes_ogs.tif
102
RTVSPost2010PropOp54
 70
     1
102
RTVSPost2010Prop55
280
     0
102
RTVSPost2010PropOp55
 70
     1
102
RTVSPost2010Prop56
140
1.0
102
RTVSPost2010PropOp56
 70
     1
102
RTVSPost2010Prop57
140
1.0
102
RTVSPost2010PropOp57
 70
     1
  0
XRECORD
  5
2F1
102
{ACAD_REACTORS
330
2F0
102
}
330
2F0
100
AcDbXrecord
280
     1
102
RTVSPropertyOp0
 70
     1
102
RTVSPropertyOp1
 70
     1
102
RTVSPropertyOp2
 70
     1
102
RTVSPropertyOp3
 70
     1
102
RTVSPropertyOp4
 70
     1
102
RTVSPropertyOp5
 70
     1
102
RTVSPropertyOp6
 70
     1
102
RTVSPropertyOp7
 70
     1
102
RTVSPropertyOp8
 70
     1
102
RTVSPropertyOp9
 70
     1
102
RTVSPropertyOp10
 70
     1
102
RTVSPropertyOp11
 70
     1
102
RTVSPropertyOp12
 70
     1
102
RTVSPropertyOp13
 70
     1
102
RTVSPropertyOp14
 70
     1
102
RTVSPropertyOp15
 70
     1
102
RTVSPropertyOp16
 70
     1
102
RTVSPropertyOp17
 70
     1
102
RTVSPropertyOp18
 70
     1
102
RTVSPropertyOp19
 70
     1
102
RTVSPropertyOp20
 70
     1
102
RTVSPropertyOp21
 70
     1
102
RTVSPropertyOp22
 70
     1
102
RTVSPropertyOp23
 70
     1
102
RTVSPropertyOp24
 70
     1
102
RTVSPropertyOp25
 70
     1
102
RTVSPropertyOp26
 70
     1
102
RTVSPropertyOp27
 70
     1
102
RTVSPropertyOp28
 70
     1
102
RTVSPropertyOp29
 70
     1
102
RTVSPropertyOp30
 70
     1
102
RTVSPropertyOp31
 70
     1
102
RTVSPropertyOp32
 70
     1
102
RTVSPropertyOp33
 70
     1
102
RTVSPropertyOp34
 70
     1
102
RTVSPropertyOp35
 70
     1
102
RTVSPropertyOp36
 70
     1
102
RTVSPropertyOp37
 70
     1
102
RTVSPropertyOp38
 70
     1
102
RTVSPropertyOp39
 70
     1
102
RTVSPropertyOp40
 70
     1
102
RTVSPropertyOp41
 70
     1
102
RTVSPropertyOp42
 70
     1
102
RTVSPropertyOp43
 70
     1
102
RTVSPropertyOp44
 70
     1
102
RTVSPropertyOp45
 70
     1
102
RTVSPropertyOp46
 70
     1
102
RTVSPropertyOp47
 70
     1
102
RTVSPropertyOp48
 70
     1
102
RTVSPropertyOp49
 70
     1
102
RTVSPropertyOp50
 70
     1
102
RTVSPropertyOp51
 70
     0
102
RTVSPropertyOp52
 70
     0
102
RTVSPropertyOp53
 70
     1
102
RTVSPropertyOp54
 70
     1
102
RTVSPropertyOp55
 70
     1
102
RTVSPropertyOp56
 70
     1
102
RTVSPropertyOp57
 70
     1
102
RTVSPost2010Prop28
280
     0
102
RTVSPost2010PropOp28
 70
     1
102
RTVSPost2010Prop29
280
     1
102
RTVSPost2010PropOp29
 70
     1
102
RTVSPost2010Prop30
280
     1
102
RTVSPost2010PropOp30
 70
     1
102
RTVSPost2010Prop31
280
     0
102
RTVSPost2010PropOp31
 70
     1
102
RTVSPost2010Prop32
280
     0
102
RTVSPost2010PropOp32
 70
     1
102
RTVSPost2010Prop33
280
     0
102
RTVSPost2010PropOp33
 70
     1
102
RTVSPost2010Prop34
280
     0
102
RTVSPost2010PropOp34
 70
     1
102
RTVSPost2010Prop35
280
     0
102
RTVSPost2010PropOp35
 70
     1
102
RTVSPost2010Prop36
280
     0
102
RTVSPost2010PropOp36
 70
     1
102
RTVSPost2010Prop37
 90
       50
102
RTVSPost2010PropOp37
 70
     1
102
RTVSPost2010Prop38
140
0.0
102
RTVSPost2010PropOp38
 70
     1
102
RTVSPost2010Prop39
140
1.0
102
RTVSPost2010PropOp39
 70
     1
102
RTVSPost2010Prop40
 90
        0
102
RTVSPost2010PropOp40
 70
     1
102
RTVSPost2010Prop41ColorIndex
 90
       18
102
RTVSPost2010Prop41ColorRGB
 90
        0
102
RTVSPost2010PropOp41
 70
     1
102
RTVSPost2010Prop42
 90
       50
102
RTVSPost2010PropOp42
 70
     1
102
RTVSPost2010Prop43
 90
        3
102
RTVSPost2010PropOp43
 70
     1
102
RTVSPost2010Prop44ColorIndex
 90
        5
102
RTVSPost2010Prop44ColorRGB
 90
      255
102
RTVSPost2010PropOp44
 70
     1
102
RTVSPost2010Prop45
280
     0
102
RTVSPost2010PropOp45
 70
     1
102
RTVSPost2010Prop46
 90
       50
102
RTVSPost2010PropOp46
 70
     1
102
RTVSPost2010Prop47
 90
       50
102
RTVSPost2010PropOp47
 70
     1
102
RTVSPost2010Prop48
 90
       50
102
RTVSPost2010PropOp48
 70
     1
102
RTVSPost2010Prop49
280
     0
102
RTVSPost2010PropOp49
 70
     1
102
RTVSPost2010Prop50
 90
       50
102
RTVSPost2010PropOp50
 70
     1
102
RTVSPost2010Prop51ColorIndex
 90
      256
102
RTVSPost2010Prop51ColorRGB
 90
-16777216
102
RTVSPost2010PropOp51
 70
     0
102
RTVSPost2010Prop52
140
1.0
102
RTVSPost2010PropOp52
 70
     0
102
RTVSPost2010Prop53
 90
        2
102
RTVSPost2010PropOp53
 70
     1
102
RTVSPost2010Prop54
  1
strokes_ogs.tif
102
RTVSPost2010PropOp54
 70
     1
102
RTVSPost2010Prop55
280
     0
102
RTVSPost2010PropOp55
 70
     1
102
RTVSPost2010Prop56
140
1.0
102
RTVSPost2010PropOp56
 70
     1
102
RTVSPost2010Prop57
140
1.0
102
RTVSPost2010PropOp57
 70
     1
  0
XRECORD
  5
2F3
102
{ACAD_REACTORS
330
2F2
102
}
330
2F2
100
AcDbXrecord
280
     1
102
RTVSPropertyOp0
 70
     1
102
RTVSPropertyOp1
 70
     1
102
RTVSPropertyOp2
 70
     1
102
RTVSPropertyOp3
 70
     1
102
RTVSPropertyOp4
 70
     1
102
RTVSPropertyOp5
 70
     1
102
RTVSPropertyOp6
 70
     1
102
RTVSPropertyOp7
 70
     1
102
RTVSPropertyOp8
 70
     1
102
RTVSPropertyOp9
 70
     1
102
RTVSPropertyOp10
 70
     1
102
RTVSPropertyOp11
 70
     1
102
RTVSPropertyOp12
 70
     1
102
RTVSPropertyOp13
 70
     1
102
RTVSPropertyOp14
 70
     1
102
RTVSPropertyOp15
 70
     1
102
RTVSPropertyOp16
 70
     1
102
RTVSPropertyOp17
 70
     1
102
RTVSPropertyOp18
 70
     1
102
RTVSPropertyOp19
 70
     1
102
RTVSPropertyOp20
 70
     1
102
RTVSPropertyOp21
 70
     1
102
RTVSPropertyOp22
 70
     1
102
RTVSPropertyOp23
 70
     1
102
RTVSPropertyOp24
 70
     1
102
RTVSPropertyOp25
 70
     1
102
RTVSPropertyOp26
 70
     1
102
RTVSPropertyOp27
 70
     1
102
RTVSPropertyOp28
 70
     1
102
RTVSPropertyOp29
 70
     1
102
RTVSPropertyOp30
 70
     1
102
RTVSPropertyOp31
 70
     1
102
RTVSPropertyOp32
 70
     1
102
RTVSPropertyOp33
 70
     1
102
RTVSPropertyOp34
 70
     1
102
RTVSPropertyOp35
 70
     1
102
RTVSPropertyOp36
 70
     1
102
RTVSPropertyOp37
 70
     1
102
RTVSPropertyOp38
 70
     1
102
RTVSPropertyOp39
 70
     1
102
RTVSPropertyOp40
 70
     1
102
RTVSPropertyOp41
 70
     1
102
RTVSPropertyOp42
 70
     1
102
RTVSPropertyOp43
 70
     1
102
RTVSPropertyOp44
 70
     1
102
RTVSPropertyOp45
 70
     1
102
RTVSPropertyOp46
 70
     1
102
RTVSPropertyOp47
 70
     1
102
RTVSPropertyOp48
 70
     1
102
RTVSPropertyOp49
 70
     1
102
RTVSPropertyOp50
 70
     1
102
RTVSPropertyOp51
 70
     0
102
RTVSPropertyOp52
 70
     0
102
RTVSPropertyOp53
 70
     1
102
RTVSPropertyOp54
 70
     1
102
RTVSPropertyOp55
 70
     1
102
RTVSPropertyOp56
 70
     1
102
RTVSPropertyOp57
 70
     1
102
RTVSPost2010Prop28
280
     0
102
RTVSPost2010PropOp28
 70
     1
102
RTVSPost2010Prop29
280
     1
102
RTVSPost2010PropOp29
 70
     1
102
RTVSPost2010Prop30
280
     1
102
RTVSPost2010PropOp30
 70
     1
102
RTVSPost2010Prop31
280
     0
102
RTVSPost2010PropOp31
 70
     1
102
RTVSPost2010Prop32
280
     0
102
RTVSPost2010PropOp32
 70
     1
102
RTVSPost2010Prop33
280
     0
102
RTVSPost2010PropOp33
 70
     1
102
RTVSPost2010Prop34
280
     0
102
RTVSPost2010PropOp34
 70
     1
102
RTVSPost2010Prop35
280
     0
102
RTVSPost2010PropOp35
 70
     1
102
RTVSPost2010Prop36
280
     0
102
RTVSPost2010PropOp36
 70
     1
102
RTVSPost2010Prop37
 90
       50
102
RTVSPost2010PropOp37
 70
     1
102
RTVSPost2010Prop38
140
0.0
102
RTVSPost2010PropOp38
 70
     1
102
RTVSPost2010Prop39
140
1.0
102
RTVSPost2010PropOp39
 70
     1
102
RTVSPost2010Prop40
 90
        0
102
RTVSPost2010PropOp40
 70
     1
102
RTVSPost2010Prop41ColorIndex
 90
       18
102
RTVSPost2010Prop41ColorRGB
 90
        0
102
RTVSPost2010PropOp41
 70
     1
102
RTVSPost2010Prop42
 90
       50
102
RTVSPost2010PropOp42
 70
     1
102
RTVSPost2010Prop43
 90
        3
102
RTVSPost2010PropOp43
 70
     1
102
RTVSPost2010Prop44ColorIndex
 90
        5
102
RTVSPost2010Prop44ColorRGB
 90
      255
102
RTVSPost2010PropOp44
 70
     1
102
RTVSPost2010Prop45
280
     0
102
RTVSPost2010PropOp45
 70
     1
102
RTVSPost2010Prop46
 90
       50
102
RTVSPost2010PropOp46
 70
     1
102
RTVSPost2010Prop47
 90
       50
102
RTVSPost2010PropOp47
 70
     1
102
RTVSPost2010Prop48
 90
       50
102
RTVSPost2010PropOp48
 70
     1
102
RTVSPost2010Prop49
280
     0
102
RTVSPost2010PropOp49
 70
     1
102
RTVSPost2010Prop50
 90
       50
102
RTVSPost2010PropOp50
 70
     1
102
RTVSPost2010Prop51ColorIndex
 90
      256
102
RTVSPost2010Prop51ColorRGB
 90
-16777216
102
RTVSPost2010PropOp51
 70
     0
102
RTVSPost2010Prop52
140
1.0
102
RTVSPost2010PropOp52
 70
     0
102
RTVSPost2010Prop53
 90
        2
102
RTVSPost2010PropOp53
 70
     1
102
RTVSPost2010Prop54
  1
strokes_ogs.tif
102
RTVSPost2010PropOp54
 70
     1
102
RTVSPost2010Prop55
280
     0
102
RTVSPost2010PropOp55
 70
     1
102
RTVSPost2010Prop56
140
1.0
102
RTVSPost2010PropOp56
 70
     1
102
RTVSPost2010Prop57
140
1.0
102
RTVSPost2010PropOp57
 70
     1
  0
XRECORD
  5
2F5
102
{ACAD_REACTORS
330
2F4
102
}
330
2F4
100
AcDbXrecord
280
     1
102
RTVSPropertyOp0
 70
     1
102
RTVSPropertyOp1
 70
     1
102
RTVSPropertyOp2
 70
     1
102
RTVSPropertyOp3
 70
     1
102
RTVSPropertyOp4
 70
     1
102
RTVSPropertyOp5
 70
     1
102
RTVSPropertyOp6
 70
     1
102
RTVSPropertyOp7
 70
     1
102
RTVSPropertyOp8
 70
     1
102
RTVSPropertyOp9
 70
     1
102
RTVSPropertyOp10
 70
     1
102
RTVSPropertyOp11
 70
     1
102
RTVSPropertyOp12
 70
     1
102
RTVSPropertyOp13
 70
     1
102
RTVSPropertyOp14
 70
     1
102
RTVSPropertyOp15
 70
     1
102
RTVSPropertyOp16
 70
     1
102
RTVSPropertyOp17
 70
     1
102
RTVSPropertyOp18
 70
     1
102
RTVSPropertyOp19
 70
     1
102
RTVSPropertyOp20
 70
     1
102
RTVSPropertyOp21
 70
     1
102
RTVSPropertyOp22
 70
     1
102
RTVSPropertyOp23
 70
     1
102
RTVSPropertyOp24
 70
     1
102
RTVSPropertyOp25
 70
     1
102
RTVSPropertyOp26
 70
     1
102
RTVSPropertyOp27
 70
     1
102
RTVSPropertyOp28
 70
     1
102
RTVSPropertyOp29
 70
     1
102
RTVSPropertyOp30
 70
     1
102
RTVSPropertyOp31
 70
     1
102
RTVSPropertyOp32
 70
     1
102
RTVSPropertyOp33
 70
     1
102
RTVSPropertyOp34
 70
     1
102
RTVSPropertyOp35
 70
     1
102
RTVSPropertyOp36
 70
     1
102
RTVSPropertyOp37
 70
     1
102
RTVSPropertyOp38
 70
     1
102
RTVSPropertyOp39
 70
     1
102
RTVSPropertyOp40
 70
     1
102
RTVSPropertyOp41
 70
     1
102
RTVSPropertyOp42
 70
     1
102
RTVSPropertyOp43
 70
     1
102
RTVSPropertyOp44
 70
     1
102
RTVSPropertyOp45
 70
     1
102
RTVSPropertyOp46
 70
     1
102
RTVSPropertyOp47
 70
     1
102
RTVSPropertyOp48
 70
     1
102
RTVSPropertyOp49
 70
     1
102
RTVSPropertyOp50
 70
     1
102
RTVSPropertyOp51
 70
     0
102
RTVSPropertyOp52
 70
     0
102
RTVSPropertyOp53
 70
     1
102
RTVSPropertyOp54
 70
     1
102
RTVSPropertyOp55
 70
     1
102
RTVSPropertyOp56
 70
     1
102
RTVSPropertyOp57
 70
     1
102
RTVSPost2010Prop28
280
     0
102
RTVSPost2010PropOp28
 70
     1
102
RTVSPost2010Prop29
280
     1
102
RTVSPost2010PropOp29
 70
     1
102
RTVSPost2010Prop30
280
     1
102
RTVSPost2010PropOp30
 70
     1
102
RTVSPost2010Prop31
280
     0
102
RTVSPost2010PropOp31
 70
     1
102
RTVSPost2010Prop32
280
     0
102
RTVSPost2010PropOp32
 70
     1
102
RTVSPost2010Prop33
280
     0
102
RTVSPost2010PropOp33
 70
     1
102
RTVSPost2010Prop34
280
     0
102
RTVSPost2010PropOp34
 70
     1
102
RTVSPost2010Prop35
280
     0
102
RTVSPost2010PropOp35
 70
     1
102
RTVSPost2010Prop36
280
     0
102
RTVSPost2010PropOp36
 70
     1
102
RTVSPost2010Prop37
 90
       50
102
RTVSPost2010PropOp37
 70
     1
102
RTVSPost2010Prop38
140
0.0
102
RTVSPost2010PropOp38
 70
     1
102
RTVSPost2010Prop39
140
1.0
102
RTVSPost2010PropOp39
 70
     1
102
RTVSPost2010Prop40
 90
        0
102
RTVSPost2010PropOp40
 70
     1
102
RTVSPost2010Prop41ColorIndex
 90
       18
102
RTVSPost2010Prop41ColorRGB
 90
        0
102
RTVSPost2010PropOp41
 70
     1
102
RTVSPost2010Prop42
 90
       50
102
RTVSPost2010PropOp42
 70
     1
102
RTVSPost2010Prop43
 90
        3
102
RTVSPost2010PropOp43
 70
     1
102
RTVSPost2010Prop44ColorIndex
 90
        5
102
RTVSPost2010Prop44ColorRGB
 90
      255
102
RTVSPost2010PropOp44
 70
     1
102
RTVSPost2010Prop45
280
     0
102
RTVSPost2010PropOp45
 70
     1
102
RTVSPost2010Prop46
 90
       50
102
RTVSPost2010PropOp46
 70
     1
102
RTVSPost2010Prop47
 90
       50
102
RTVSPost2010PropOp47
 70
     1
102
RTVSPost2010Prop48
 90
       50
102
RTVSPost2010PropOp48
 70
     1
102
RTVSPost2010Prop49
280
     0
102
RTVSPost2010PropOp49
 70
     1
102
RTVSPost2010Prop50
 90
       50
102
RTVSPost2010PropOp50
 70
     1
102
RTVSPost2010Prop51ColorIndex
 90
      256
102
RTVSPost2010Prop51ColorRGB
 90
-16777216
102
RTVSPost2010PropOp51
 70
     0
102
RTVSPost2010Prop52
140
1.0
102
RTVSPost2010PropOp52
 70
     0
102
RTVSPost2010Prop53
 90
        2
102
RTVSPost2010PropOp53
 70
     1
102
RTVSPost2010Prop54
  1
strokes_ogs.tif
102
RTVSPost2010PropOp54
 70
     1
102
RTVSPost2010Prop55
280
     0
102
RTVSPost2010PropOp55
 70
     1
102
RTVSPost2010Prop56
140
1.0
102
RTVSPost2010PropOp56
 70
     1
102
RTVSPost2010Prop57
140
1.0
102
RTVSPost2010PropOp57
 70
     1
  0
XRECORD
  5
2F7
102
{ACAD_REACTORS
330
2F6
102
}
330
2F6
100
AcDbXrecord
280
     1
102
RTVSPropertyOp0
 70
     1
102
RTVSPropertyOp1
 70
     1
102
RTVSPropertyOp2
 70
     1
102
RTVSPropertyOp3
 70
     1
102
RTVSPropertyOp4
 70
     1
102
RTVSPropertyOp5
 70
     1
102
RTVSPropertyOp6
 70
     1
102
RTVSPropertyOp7
 70
     1
102
RTVSPropertyOp8
 70
     1
102
RTVSPropertyOp9
 70
     1
102
RTVSPropertyOp10
 70
     1
102
RTVSPropertyOp11
 70
     1
102
RTVSPropertyOp12
 70
     1
102
RTVSPropertyOp13
 70
     1
102
RTVSPropertyOp14
 70
     1
102
RTVSPropertyOp15
 70
     1
102
RTVSPropertyOp16
 70
     1
102
RTVSPropertyOp17
 70
     1
102
RTVSPropertyOp18
 70
     1
102
RTVSPropertyOp19
 70
     1
102
RTVSPropertyOp20
 70
     1
102
RTVSPropertyOp21
 70
     1
102
RTVSPropertyOp22
 70
     1
102
RTVSPropertyOp23
 70
     1
102
RTVSPropertyOp24
 70
     1
102
RTVSPropertyOp25
 70
     1
102
RTVSPropertyOp26
 70
     1
102
RTVSPropertyOp27
 70
     1
102
RTVSPropertyOp28
 70
     1
102
RTVSPropertyOp29
 70
     1
102
RTVSPropertyOp30
 70
     1
102
RTVSPropertyOp31
 70
     1
102
RTVSPropertyOp32
 70
     1
102
RTVSPropertyOp33
 70
     1
102
RTVSPropertyOp34
 70
     1
102
RTVSPropertyOp35
 70
     1
102
RTVSPropertyOp36
 70
     1
102
RTVSPropertyOp37
 70
     1
102
RTVSPropertyOp38
 70
     1
102
RTVSPropertyOp39
 70
     1
102
RTVSPropertyOp40
 70
     1
102
RTVSPropertyOp41
 70
     1
102
RTVSPropertyOp42
 70
     1
102
RTVSPropertyOp43
 70
     1
102
RTVSPropertyOp44
 70
     1
102
RTVSPropertyOp45
 70
     1
102
RTVSPropertyOp46
 70
     1
102
RTVSPropertyOp47
 70
     1
102
RTVSPropertyOp48
 70
     1
102
RTVSPropertyOp49
 70
     1
102
RTVSPropertyOp50
 70
     1
102
RTVSPropertyOp51
 70
     0
102
RTVSPropertyOp52
 70
     0
102
RTVSPropertyOp53
 70
     1
102
RTVSPropertyOp54
 70
     1
102
RTVSPropertyOp55
 70
     1
102
RTVSPropertyOp56
 70
     1
102
RTVSPropertyOp57
 70
     1
102
RTVSPost2010Prop28
280
     0
102
RTVSPost2010PropOp28
 70
     1
102
RTVSPost2010Prop29
280
     1
102
RTVSPost2010PropOp29
 70
     1
102
RTVSPost2010Prop30
280
     1
102
RTVSPost2010PropOp30
 70
     1
102
RTVSPost2010Prop31
280
     0
102
RTVSPost2010PropOp31
 70
     1
102
RTVSPost2010Prop32
280
     0
102
RTVSPost2010PropOp32
 70
     1
102
RTVSPost2010Prop33
280
     0
102
RTVSPost2010PropOp33
 70
     1
102
RTVSPost2010Prop34
280
     0
102
RTVSPost2010PropOp34
 70
     1
102
RTVSPost2010Prop35
280
     0
102
RTVSPost2010PropOp35
 70
     1
102
RTVSPost2010Prop36
280
     0
102
RTVSPost2010PropOp36
 70
     1
102
RTVSPost2010Prop37
 90
       50
102
RTVSPost2010PropOp37
 70
     1
102
RTVSPost2010Prop38
140
0.0
102
RTVSPost2010PropOp38
 70
     1
102
RTVSPost2010Prop39
140
1.0
102
RTVSPost2010PropOp39
 70
     1
102
RTVSPost2010Prop40
 90
        0
102
RTVSPost2010PropOp40
 70
     1
102
RTVSPost2010Prop41ColorIndex
 90
       18
102
RTVSPost2010Prop41ColorRGB
 90
        0
102
RTVSPost2010PropOp41
 70
     1
102
RTVSPost2010Prop42
 90
       50
102
RTVSPost2010PropOp42
 70
     1
102
RTVSPost2010Prop43
 90
        3
102
RTVSPost2010PropOp43
 70
     1
102
RTVSPost2010Prop44ColorIndex
 90
        5
102
RTVSPost2010Prop44ColorRGB
 90
      255
102
RTVSPost2010PropOp44
 70
     1
102
RTVSPost2010Prop45
280
     0
102
RTVSPost2010PropOp45
 70
     1
102
RTVSPost2010Prop46
 90
       50
102
RTVSPost2010PropOp46
 70
     1
102
RTVSPost2010Prop47
 90
       50
102
RTVSPost2010PropOp47
 70
     1
102
RTVSPost2010Prop48
 90
       50
102
RTVSPost2010PropOp48
 70
     1
102
RTVSPost2010Prop49
280
     0
102
RTVSPost2010PropOp49
 70
     1
102
RTVSPost2010Prop50
 90
       50
102
RTVSPost2010PropOp50
 70
     1
102
RTVSPost2010Prop51ColorIndex
 90
      256
102
RTVSPost2010Prop51ColorRGB
 90
-16777216
102
RTVSPost2010PropOp51
 70
     0
102
RTVSPost2010Prop52
140
1.0
102
RTVSPost2010PropOp52
 70
     0
102
RTVSPost2010Prop53
 90
        2
102
RTVSPost2010PropOp53
 70
     1
102
RTVSPost2010Prop54
  1
strokes_ogs.tif
102
RTVSPost2010PropOp54
 70
     1
102
RTVSPost2010Prop55
280
     0
102
RTVSPost2010PropOp55
 70
     1
102
RTVSPost2010Prop56
140
1.0
102
RTVSPost2010PropOp56
 70
     1
102
RTVSPost2010Prop57
140
1.0
102
RTVSPost2010PropOp57
 70
     1
  0
XRECORD
  5
2FD
102
{ACAD_REACTORS
330
2FC
102
}
330
2FC
100
AcDbXrecord
280
     1
102
RTVSPropertyOp0
 70
     1
102
RTVSPropertyOp1
 70
     1
102
RTVSPropertyOp2
 70
     1
102
RTVSPropertyOp3
 70
     1
102
RTVSPropertyOp4
 70
     1
102
RTVSPropertyOp5
 70
     1
102
RTVSPropertyOp6
 70
     1
102
RTVSPropertyOp7
 70
     1
102
RTVSPropertyOp8
 70
     1
102
RTVSPropertyOp9
 70
     1
102
RTVSPropertyOp10
 70
     1
102
RTVSPropertyOp11
 70
     1
102
RTVSPropertyOp12
 70
     1
102
RTVSPropertyOp13
 70
     1
102
RTVSPropertyOp14
 70
     1
102
RTVSPropertyOp15
 70
     1
102
RTVSPropertyOp16
 70
     1
102
RTVSPropertyOp17
 70
     1
102
RTVSPropertyOp18
 70
     1
102
RTVSPropertyOp19
 70
     1
102
RTVSPropertyOp20
 70
     1
102
RTVSPropertyOp21
 70
     1
102
RTVSPropertyOp22
 70
     1
102
RTVSPropertyOp23
 70
     1
102
RTVSPropertyOp24
 70
     1
102
RTVSPropertyOp25
 70
     1
102
RTVSPropertyOp26
 70
     1
102
RTVSPropertyOp27
 70
     1
102
RTVSPropertyOp28
 70
     1
102
RTVSPropertyOp29
 70
     1
102
RTVSPropertyOp30
 70
     1
102
RTVSPropertyOp31
 70
     1
102
RTVSPropertyOp32
 70
     1
102
RTVSPropertyOp33
 70
     1
102
RTVSPropertyOp34
 70
     1
102
RTVSPropertyOp35
 70
     1
102
RTVSPropertyOp36
 70
     1
102
RTVSPropertyOp37
 70
     1
102
RTVSPropertyOp38
 70
     1
102
RTVSPropertyOp39
 70
     1
102
RTVSPropertyOp40
 70
     1
102
RTVSPropertyOp41
 70
     1
102
RTVSPropertyOp42
 70
     1
102
RTVSPropertyOp43
 70
     1
102
RTVSPropertyOp44
 70
     1
102
RTVSPropertyOp45
 70
     1
102
RTVSPropertyOp46
 70
     1
102
RTVSPropertyOp47
 70
     1
102
RTVSPropertyOp48
 70
     1
102
RTVSPropertyOp49
 70
     1
102
RTVSPropertyOp50
 70
     1
102
RTVSPropertyOp51
 70
     0
102
RTVSPropertyOp52
 70
     0
102
RTVSPropertyOp53
 70
     1
102
RTVSPropertyOp54
 70
     1
102
RTVSPropertyOp55
 70
     1
102
RTVSPropertyOp56
 70
     1
102
RTVSPropertyOp57
 70
     1
102
RTVSPost2010Prop28
280
     0
102
RTVSPost2010PropOp28
 70
     1
102
RTVSPost2010Prop29
280
     1
102
RTVSPost2010PropOp29
 70
     1
102
RTVSPost2010Prop30
280
     1
102
RTVSPost2010PropOp30
 70
     1
102
RTVSPost2010Prop31
280
     0
102
RTVSPost2010PropOp31
 70
     1
102
RTVSPost2010Prop32
280
     0
102
RTVSPost2010PropOp32
 70
     1
102
RTVSPost2010Prop33
280
     0
102
RTVSPost2010PropOp33
 70
     1
102
RTVSPost2010Prop34
280
     0
102
RTVSPost2010PropOp34
 70
     1
102
RTVSPost2010Prop35
280
     0
102
RTVSPost2010PropOp35
 70
     1
102
RTVSPost2010Prop36
280
     0
102
RTVSPost2010PropOp36
 70
     1
102
RTVSPost2010Prop37
 90
       50
102
RTVSPost2010PropOp37
 70
     1
102
RTVSPost2010Prop38
140
0.0
102
RTVSPost2010PropOp38
 70
     1
102
RTVSPost2010Prop39
140
1.0
102
RTVSPost2010PropOp39
 70
     1
102
RTVSPost2010Prop40
 90
        0
102
RTVSPost2010PropOp40
 70
     1
102
RTVSPost2010Prop41ColorIndex
 90
       18
102
RTVSPost2010Prop41ColorRGB
 90
        0
102
RTVSPost2010PropOp41
 70
     1
102
RTVSPost2010Prop42
 90
       50
102
RTVSPost2010PropOp42
 70
     1
102
RTVSPost2010Prop43
 90
        3
102
RTVSPost2010PropOp43
 70
     1
102
RTVSPost2010Prop44ColorIndex
 90
        5
102
RTVSPost2010Prop44ColorRGB
 90
      255
102
RTVSPost2010PropOp44
 70
     1
102
RTVSPost2010Prop45
280
     0
102
RTVSPost2010PropOp45
 70
     1
102
RTVSPost2010Prop46
 90
       50
102
RTVSPost2010PropOp46
 70
     1
102
RTVSPost2010Prop47
 90
       50
102
RTVSPost2010PropOp47
 70
     1
102
RTVSPost2010Prop48
 90
       50
102
RTVSPost2010PropOp48
 70
     1
102
RTVSPost2010Prop49
280
     0
102
RTVSPost2010PropOp49
 70
     1
102
RTVSPost2010Prop50
 90
       50
102
RTVSPost2010PropOp50
 70
     1
102
RTVSPost2010Prop51ColorIndex
 90
      256
102
RTVSPost2010Prop51ColorRGB
 90
-16777216
102
RTVSPost2010PropOp51
 70
     0
102
RTVSPost2010Prop52
140
1.0
102
RTVSPost2010PropOp52
 70
     0
102
RTVSPost2010Prop53
 90
        2
102
RTVSPost2010PropOp53
 70
     1
102
RTVSPost2010Prop54
  1
strokes_ogs.tif
102
RTVSPost2010PropOp54
 70
     1
102
RTVSPost2010Prop55
280
     0
102
RTVSPost2010PropOp55
 70
     1
102
RTVSPost2010Prop56
140
1.0
102
RTVSPost2010PropOp56
 70
     1
102
RTVSPost2010Prop57
140
1.0
102
RTVSPost2010PropOp57
 70
     1
  0
XRECORD
  5
311
102
{ACAD_REACTORS
330
310
102
}
330
310
100
AcDbXrecord
280
     1
102
RTVSPropertyOp0
 70
     0
102
RTVSPropertyOp1
 70
     0
102
RTVSPropertyOp2
 70
     0
102
RTVSPropertyOp3
 70
     0
102
RTVSPropertyOp4
 70
     0
102
RTVSPropertyOp5
 70
     0
102
RTVSPropertyOp6
 70
     0
102
RTVSPropertyOp7
 70
     0
102
RTVSPropertyOp8
 70
     0
102
RTVSPropertyOp9
 70
     0
102
RTVSPropertyOp10
 70
     0
102
RTVSPropertyOp11
 70
     0
102
RTVSPropertyOp12
 70
     0
102
RTVSPropertyOp13
 70
     0
102
RTVSPropertyOp14
 70
     2
102
RTVSPropertyOp15
 70
     0
102
RTVSPropertyOp16
 70
     0
102
RTVSPropertyOp17
 70
     0
102
RTVSPropertyOp18
 70
     0
102
RTVSPropertyOp19
 70
     0
102
RTVSPropertyOp20
 70
     0
102
RTVSPropertyOp21
 70
     0
102
RTVSPropertyOp22
 70
     0
102
RTVSPropertyOp23
 70
     0
102
RTVSPropertyOp24
 70
     0
102
RTVSPropertyOp25
 70
     0
102
RTVSPropertyOp26
 70
     0
102
RTVSPropertyOp27
 70
     0
102
RTVSPropertyOp28
 70
     0
102
RTVSPropertyOp29
 70
     0
102
RTVSPropertyOp30
 70
     0
102
RTVSPropertyOp31
 70
     0
102
RTVSPropertyOp32
 70
     0
102
RTVSPropertyOp33
 70
     0
102
RTVSPropertyOp34
 70
     0
102
RTVSPropertyOp35
 70
     0
102
RTVSPropertyOp36
 70
     0
102
RTVSPropertyOp37
 70
     0
102
RTVSPropertyOp38
 70
     0
102
RTVSPropertyOp39
 70
     0
102
RTVSPropertyOp40
 70
     0
102
RTVSPropertyOp41
 70
     0
102
RTVSPropertyOp42
 70
     0
102
RTVSPropertyOp43
 70
     0
102
RTVSPropertyOp44
 70
     0
102
RTVSPropertyOp45
 70
     0
102
RTVSPropertyOp46
 70
     0
102
RTVSPropertyOp47
 70
     0
102
RTVSPropertyOp48
 70
     0
102
RTVSPropertyOp49
 70
     0
102
RTVSPropertyOp50
 70
     0
102
RTVSPropertyOp51
 70
     0
102
RTVSPropertyOp52
 70
     0
102
RTVSPropertyOp53
 70
     0
102
RTVSPropertyOp54
 70
     0
102
RTVSPropertyOp55
 70
     0
102
RTVSPropertyOp56
 70
     0
102
RTVSPropertyOp57
 70
     0
102
RTVSPost2010Prop28
280
     0
102
RTVSPost2010PropOp28
 70
     0
102
RTVSPost2010Prop29
280
     1
102
RTVSPost2010PropOp29
 70
     0
102
RTVSPost2010Prop30
280
     1
102
RTVSPost2010PropOp30
 70
     0
102
RTVSPost2010Prop31
280
     0
102
RTVSPost2010PropOp31
 70
     0
102
RTVSPost2010Prop32
280
     0
102
RTVSPost2010PropOp32
 70
     0
102
RTVSPost2010Prop33
280
     0
102
RTVSPost2010PropOp33
 70
     0
102
RTVSPost2010Prop34
280
     0
102
RTVSPost2010PropOp34
 70
     0
102
RTVSPost2010Prop35
280
     0
102
RTVSPost2010PropOp35
 70
     0
102
RTVSPost2010Prop36
280
     0
102
RTVSPost2010PropOp36
 70
     0
102
RTVSPost2010Prop37
 90
       50
102
RTVSPost2010PropOp37
 70
     0
102
RTVSPost2010Prop38
140
0.0
102
RTVSPost2010PropOp38
 70
     0
102
RTVSPost2010Prop39
140
1.0
102
RTVSPost2010PropOp39
 70
     0
102
RTVSPost2010Prop40
 90
        0
102
RTVSPost2010PropOp40
 70
     0
102
RTVSPost2010Prop41ColorIndex
 90
       18
102
RTVSPost2010Prop41ColorRGB
 90
        0
102
RTVSPost2010PropOp41
 70
     0
102
RTVSPost2010Prop42
 90
       50
102
RTVSPost2010PropOp42
 70
     0
102
RTVSPost2010Prop43
 90
        3
102
RTVSPost2010PropOp43
 70
     0
102
RTVSPost2010Prop44ColorIndex
 90
        5
102
RTVSPost2010Prop44ColorRGB
 90
      255
102
RTVSPost2010PropOp44
 70
     0
102
RTVSPost2010Prop45
280
     0
102
RTVSPost2010PropOp45
 70
     0
102
RTVSPost2010Prop46
 90
       50
102
RTVSPost2010PropOp46
 70
     0
102
RTVSPost2010Prop47
 90
       50
102
RTVSPost2010PropOp47
 70
     0
102
RTVSPost2010Prop48
 90
       50
102
RTVSPost2010PropOp48
 70
     0
102
RTVSPost2010Prop49
280
     0
102
RTVSPost2010PropOp49
 70
     0
102
RTVSPost2010Prop50
 90
       50
102
RTVSPost2010PropOp50
 70
     0
102
RTVSPost2010Prop51ColorIndex
 90
      256
102
RTVSPost2010Prop51ColorRGB
 90
-16777216
102
RTVSPost2010PropOp51
 70
     0
102
RTVSPost2010Prop52
140
1.0
102
RTVSPost2010PropOp52
 70
     0
102
RTVSPost2010Prop53
 90
        2
102
RTVSPost2010PropOp53
 70
     0
102
RTVSPost2010Prop54
  1
strokes_ogs.tif
102
RTVSPost2010PropOp54
 70
     0
102
RTVSPost2010Prop55
280
     0
102
RTVSPost2010PropOp55
 70
     0
102
RTVSPost2010Prop56
140
1.0
102
RTVSPost2010PropOp56
 70
     0
102
RTVSPost2010Prop57
140
1.0
102
RTVSPost2010PropOp57
 70
     0
  0
XRECORD
  5
30B
102
{ACAD_REACTORS
330
30A
102
}
330
30A
100
AcDbXrecord
280
     1
102
RTVSPropertyOp0
 70
     1
102
RTVSPropertyOp1
 70
     1
102
RTVSPropertyOp2
 70
     1
102
RTVSPropertyOp3
 70
     1
102
RTVSPropertyOp4
 70
     1
102
RTVSPropertyOp5
 70
     1
102
RTVSPropertyOp6
 70
     1
102
RTVSPropertyOp7
 70
     1
102
RTVSPropertyOp8
 70
     1
102
RTVSPropertyOp9
 70
     1
102
RTVSPropertyOp10
 70
     1
102
RTVSPropertyOp11
 70
     1
102
RTVSPropertyOp12
 70
     1
102
RTVSPropertyOp13
 70
     1
102
RTVSPropertyOp14
 70
     1
102
RTVSPropertyOp15
 70
     1
102
RTVSPropertyOp16
 70
     1
102
RTVSPropertyOp17
 70
     1
102
RTVSPropertyOp18
 70
     1
102
RTVSPropertyOp19
 70
     1
102
RTVSPropertyOp20
 70
     1
102
RTVSPropertyOp21
 70
     1
102
RTVSPropertyOp22
 70
     1
102
RTVSPropertyOp23
 70
     1
102
RTVSPropertyOp24
 70
     1
102
RTVSPropertyOp25
 70
     1
102
RTVSPropertyOp26
 70
     1
102
RTVSPropertyOp27
 70
     1
102
RTVSPropertyOp28
 70
     1
102
RTVSPropertyOp29
 70
     1
102
RTVSPropertyOp30
 70
     1
102
RTVSPropertyOp31
 70
     1
102
RTVSPropertyOp32
 70
     1
102
RTVSPropertyOp33
 70
     1
102
RTVSPropertyOp34
 70
     1
102
RTVSPropertyOp35
 70
     1
102
RTVSPropertyOp36
 70
     1
102
RTVSPropertyOp37
 70
     1
102
RTVSPropertyOp38
 70
     1
102
RTVSPropertyOp39
 70
     1
102
RTVSPropertyOp40
 70
     1
102
RTVSPropertyOp41
 70
     1
102
RTVSPropertyOp42
 70
     1
102
RTVSPropertyOp43
 70
     1
102
RTVSPropertyOp44
 70
     1
102
RTVSPropertyOp45
 70
     1
102
RTVSPropertyOp46
 70
     1
102
RTVSPropertyOp47
 70
     1
102
RTVSPropertyOp48
 70
     1
102
RTVSPropertyOp49
 70
     1
102
RTVSPropertyOp50
 70
     1
102
RTVSPropertyOp51
 70
     0
102
RTVSPropertyOp52
 70
     0
102
RTVSPropertyOp53
 70
     1
102
RTVSPropertyOp54
 70
     1
102
RTVSPropertyOp55
 70
     1
102
RTVSPropertyOp56
 70
     1
102
RTVSPropertyOp57
 70
     1
102
RTVSPost2010Prop28
280
     0
102
RTVSPost2010PropOp28
 70
     1
102
RTVSPost2010Prop29
280
     1
102
RTVSPost2010PropOp29
 70
     1
102
RTVSPost2010Prop30
280
     1
102
RTVSPost2010PropOp30
 70
     1
102
RTVSPost2010Prop31
280
     0
102
RTVSPost2010PropOp31
 70
     1
102
RTVSPost2010Prop32
280
     0
102
RTVSPost2010PropOp32
 70
     1
102
RTVSPost2010Prop33
280
     0
102
RTVSPost2010PropOp33
 70
     1
102
RTVSPost2010Prop34
280
     0
102
RTVSPost2010PropOp34
 70
     1
102
RTVSPost2010Prop35
280
     0
102
RTVSPost2010PropOp35
 70
     1
102
RTVSPost2010Prop36
280
     0
102
RTVSPost2010PropOp36
 70
     1
102
RTVSPost2010Prop37
 90
       50
102
RTVSPost2010PropOp37
 70
     1
102
RTVSPost2010Prop38
140
0.0
102
RTVSPost2010PropOp38
 70
     1
102
RTVSPost2010Prop39
140
1.0
102
RTVSPost2010PropOp39
 70
     1
102
RTVSPost2010Prop40
 90
        0
102
RTVSPost2010PropOp40
 70
     1
102
RTVSPost2010Prop41ColorIndex
 90
       18
102
RTVSPost2010Prop41ColorRGB
 90
        0
102
RTVSPost2010PropOp41
 70
     1
102
RTVSPost2010Prop42
 90
       50
102
RTVSPost2010PropOp42
 70
     1
102
RTVSPost2010Prop43
 90
        3
102
RTVSPost2010PropOp43
 70
     1
102
RTVSPost2010Prop44ColorIndex
 90
        5
102
RTVSPost2010Prop44ColorRGB
 90
      255
102
RTVSPost2010PropOp44
 70
     1
102
RTVSPost2010Prop45
280
     0
102
RTVSPost2010PropOp45
 70
     1
102
RTVSPost2010Prop46
 90
       50
102
RTVSPost2010PropOp46
 70
     1
102
RTVSPost2010Prop47
 90
       50
102
RTVSPost2010PropOp47
 70
     1
102
RTVSPost2010Prop48
 90
       50
102
RTVSPost2010PropOp48
 70
     1
102
RTVSPost2010Prop49
280
     0
102
RTVSPost2010PropOp49
 70
     1
102
RTVSPost2010Prop50
 90
       50
102
RTVSPost2010PropOp50
 70
     1
102
RTVSPost2010Prop51ColorIndex
 90
      256
102
RTVSPost2010Prop51ColorRGB
 90
-16777216
102
RTVSPost2010PropOp51
 70
     0
102
RTVSPost2010Prop52
140
1.0
102
RTVSPost2010PropOp52
 70
     0
102
RTVSPost2010Prop53
 90
        2
102
RTVSPost2010PropOp53
 70
     1
102
RTVSPost2010Prop54
  1
strokes_ogs.tif
102
RTVSPost2010PropOp54
 70
     1
102
RTVSPost2010Prop55
280
     0
102
RTVSPost2010PropOp55
 70
     1
102
RTVSPost2010Prop56
140
1.0
102
RTVSPost2010PropOp56
 70
     1
102
RTVSPost2010Prop57
140
1.0
102
RTVSPost2010PropOp57
 70
     1
  0
XRECORD
  5
313
102
{ACAD_REACTORS
330
312
102
}
330
312
100
AcDbXrecord
280
     1
102
RTVSPropertyOp0
 70
     0
102
RTVSPropertyOp1
 70
     0
102
RTVSPropertyOp2
 70
     0
102
RTVSPropertyOp3
 70
     0
102
RTVSPropertyOp4
 70
     0
102
RTVSPropertyOp5
 70
     0
102
RTVSPropertyOp6
 70
     0
102
RTVSPropertyOp7
 70
     0
102
RTVSPropertyOp8
 70
     0
102
RTVSPropertyOp9
 70
     0
102
RTVSPropertyOp10
 70
     0
102
RTVSPropertyOp11
 70
     0
102
RTVSPropertyOp12
 70
     0
102
RTVSPropertyOp13
 70
     0
102
RTVSPropertyOp14
 70
     2
102
RTVSPropertyOp15
 70
     0
102
RTVSPropertyOp16
 70
     0
102
RTVSPropertyOp17
 70
     0
102
RTVSPropertyOp18
 70
     0
102
RTVSPropertyOp19
 70
     0
102
RTVSPropertyOp20
 70
     0
102
RTVSPropertyOp21
 70
     0
102
RTVSPropertyOp22
 70
     0
102
RTVSPropertyOp23
 70
     0
102
RTVSPropertyOp24
 70
     0
102
RTVSPropertyOp25
 70
     0
102
RTVSPropertyOp26
 70
     0
102
RTVSPropertyOp27
 70
     0
102
RTVSPropertyOp28
 70
     0
102
RTVSPropertyOp29
 70
     0
102
RTVSPropertyOp30
 70
     0
102
RTVSPropertyOp31
 70
     0
102
RTVSPropertyOp32
 70
     0
102
RTVSPropertyOp33
 70
     0
102
RTVSPropertyOp34
 70
     0
102
RTVSPropertyOp35
 70
     0
102
RTVSPropertyOp36
 70
     0
102
RTVSPropertyOp37
 70
     0
102
RTVSPropertyOp38
 70
     0
102
RTVSPropertyOp39
 70
     0
102
RTVSPropertyOp40
 70
     0
102
RTVSPropertyOp41
 70
     0
102
RTVSPropertyOp42
 70
     0
102
RTVSPropertyOp43
 70
     0
102
RTVSPropertyOp44
 70
     0
102
RTVSPropertyOp45
 70
     0
102
RTVSPropertyOp46
 70
     0
102
RTVSPropertyOp47
 70
     0
102
RTVSPropertyOp48
 70
     0
102
RTVSPropertyOp49
 70
     0
102
RTVSPropertyOp50
 70
     0
102
RTVSPropertyOp51
 70
     0
102
RTVSPropertyOp52
 70
     0
102
RTVSPropertyOp53
 70
     0
102
RTVSPropertyOp54
 70
     0
102
RTVSPropertyOp55
 70
     0
102
RTVSPropertyOp56
 70
     0
102
RTVSPropertyOp57
 70
     0
102
RTVSPost2010Prop28
280
     0
102
RTVSPost2010PropOp28
 70
     0
102
RTVSPost2010Prop29
280
     1
102
RTVSPost2010PropOp29
 70
     0
102
RTVSPost2010Prop30
280
     1
102
RTVSPost2010PropOp30
 70
     0
102
RTVSPost2010Prop31
280
     0
102
RTVSPost2010PropOp31
 70
     0
102
RTVSPost2010Prop32
280
     0
102
RTVSPost2010PropOp32
 70
     0
102
RTVSPost2010Prop33
280
     0
102
RTVSPost2010PropOp33
 70
     0
102
RTVSPost2010Prop34
280
     0
102
RTVSPost2010PropOp34
 70
     0
102
RTVSPost2010Prop35
280
     0
102
RTVSPost2010PropOp35
 70
     0
102
RTVSPost2010Prop36
280
     0
102
RTVSPost2010PropOp36
 70
     0
102
RTVSPost2010Prop37
 90
       50
102
RTVSPost2010PropOp37
 70
     0
102
RTVSPost2010Prop38
140
0.0
102
RTVSPost2010PropOp38
 70
     0
102
RTVSPost2010Prop39
140
1.0
102
RTVSPost2010PropOp39
 70
     0
102
RTVSPost2010Prop40
 90
        0
102
RTVSPost2010PropOp40
 70
     0
102
RTVSPost2010Prop41ColorIndex
 90
       18
102
RTVSPost2010Prop41ColorRGB
 90
        0
102
RTVSPost2010PropOp41
 70
     0
102
RTVSPost2010Prop42
 90
       50
102
RTVSPost2010PropOp42
 70
     0
102
RTVSPost2010Prop43
 90
        3
102
RTVSPost2010PropOp43
 70
     0
102
RTVSPost2010Prop44ColorIndex
 90
        5
102
RTVSPost2010Prop44ColorRGB
 90
      255
102
RTVSPost2010PropOp44
 70
     0
102
RTVSPost2010Prop45
280
     0
102
RTVSPost2010PropOp45
 70
     0
102
RTVSPost2010Prop46
 90
       50
102
RTVSPost2010PropOp46
 70
     0
102
RTVSPost2010Prop47
 90
       50
102
RTVSPost2010PropOp47
 70
     0
102
RTVSPost2010Prop48
 90
       50
102
RTVSPost2010PropOp48
 70
     0
102
RTVSPost2010Prop49
280
     0
102
RTVSPost2010PropOp49
 70
     0
102
RTVSPost2010Prop50
 90
       50
102
RTVSPost2010PropOp50
 70
     0
102
RTVSPost2010Prop51ColorIndex
 90
      256
102
RTVSPost2010Prop51ColorRGB
 90
-16777216
102
RTVSPost2010PropOp51
 70
     0
102
RTVSPost2010Prop52
140
1.0
102
RTVSPost2010PropOp52
 70
     0
102
RTVSPost2010Prop53
 90
        2
102
RTVSPost2010PropOp53
 70
     0
102
RTVSPost2010Prop54
  1
strokes_ogs.tif
102
RTVSPost2010PropOp54
 70
     0
102
RTVSPost2010Prop55
280
     0
102
RTVSPost2010PropOp55
 70
     0
102
RTVSPost2010Prop56
140
1.0
102
RTVSPost2010PropOp56
 70
     0
102
RTVSPost2010Prop57
140
1.0
102
RTVSPost2010PropOp57
 70
     0
  0
XRECORD
  5
301
102
{ACAD_REACTORS
330
300
102
}
330
300
100
AcDbXrecord
280
     1
102
RTVSPropertyOp0
 70
     1
102
RTVSPropertyOp1
 70
     1
102
RTVSPropertyOp2
 70
     1
102
RTVSPropertyOp3
 70
     1
102
RTVSPropertyOp4
 70
     1
102
RTVSPropertyOp5
 70
     1
102
RTVSPropertyOp6
 70
     1
102
RTVSPropertyOp7
 70
     1
102
RTVSPropertyOp8
 70
     1
102
RTVSPropertyOp9
 70
     1
102
RTVSPropertyOp10
 70
     1
102
RTVSPropertyOp11
 70
     1
102
RTVSPropertyOp12
 70
     1
102
RTVSPropertyOp13
 70
     1
102
RTVSPropertyOp14
 70
     1
102
RTVSPropertyOp15
 70
     1
102
RTVSPropertyOp16
 70
     1
102
RTVSPropertyOp17
 70
     1
102
RTVSPropertyOp18
 70
     1
102
RTVSPropertyOp19
 70
     1
102
RTVSPropertyOp20
 70
     1
102
RTVSPropertyOp21
 70
     1
102
RTVSPropertyOp22
 70
     1
102
RTVSPropertyOp23
 70
     1
102
RTVSPropertyOp24
 70
     1
102
RTVSPropertyOp25
 70
     1
102
RTVSPropertyOp26
 70
     1
102
RTVSPropertyOp27
 70
     1
102
RTVSPropertyOp28
 70
     1
102
RTVSPropertyOp29
 70
     1
102
RTVSPropertyOp30
 70
     1
102
RTVSPropertyOp31
 70
     1
102
RTVSPropertyOp32
 70
     1
102
RTVSPropertyOp33
 70
     1
102
RTVSPropertyOp34
 70
     1
102
RTVSPropertyOp35
 70
     1
102
RTVSPropertyOp36
 70
     1
102
RTVSPropertyOp37
 70
     1
102
RTVSPropertyOp38
 70
     1
102
RTVSPropertyOp39
 70
     1
102
RTVSPropertyOp40
 70
     1
102
RTVSPropertyOp41
 70
     1
102
RTVSPropertyOp42
 70
     1
102
RTVSPropertyOp43
 70
     1
102
RTVSPropertyOp44
 70
     1
102
RTVSPropertyOp45
 70
     1
102
RTVSPropertyOp46
 70
     1
102
RTVSPropertyOp47
 70
     1
102
RTVSPropertyOp48
 70
     1
102
RTVSPropertyOp49
 70
     1
102
RTVSPropertyOp50
 70
     1
102
RTVSPropertyOp51
 70
     0
102
RTVSPropertyOp52
 70
     0
102
RTVSPropertyOp53
 70
     1
102
RTVSPropertyOp54
 70
     1
102
RTVSPropertyOp55
 70
     1
102
RTVSPropertyOp56
 70
     1
102
RTVSPropertyOp57
 70
     1
102
RTVSPost2010Prop28
280
     0
102
RTVSPost2010PropOp28
 70
     1
102
RTVSPost2010Prop29
280
     1
102
RTVSPost2010PropOp29
 70
     1
102
RTVSPost2010Prop30
280
     1
102
RTVSPost2010PropOp30
 70
     1
102
RTVSPost2010Prop31
280
     0
102
RTVSPost2010PropOp31
 70
     1
102
RTVSPost2010Prop32
280
     0
102
RTVSPost2010PropOp32
 70
     1
102
RTVSPost2010Prop33
280
     0
102
RTVSPost2010PropOp33
 70
     1
102
RTVSPost2010Prop34
280
     0
102
RTVSPost2010PropOp34
 70
     1
102
RTVSPost2010Prop35
280
     0
102
RTVSPost2010PropOp35
 70
     1
102
RTVSPost2010Prop36
280
     0
102
RTVSPost2010PropOp36
 70
     1
102
RTVSPost2010Prop37
 90
       50
102
RTVSPost2010PropOp37
 70
     1
102
RTVSPost2010Prop38
140
0.0
102
RTVSPost2010PropOp38
 70
     1
102
RTVSPost2010Prop39
140
1.0
102
RTVSPost2010PropOp39
 70
     1
102
RTVSPost2010Prop40
 90
        0
102
RTVSPost2010PropOp40
 70
     1
102
RTVSPost2010Prop41ColorIndex
 90
       18
102
RTVSPost2010Prop41ColorRGB
 90
        0
102
RTVSPost2010PropOp41
 70
     1
102
RTVSPost2010Prop42
 90
       50
102
RTVSPost2010PropOp42
 70
     1
102
RTVSPost2010Prop43
 90
        3
102
RTVSPost2010PropOp43
 70
     1
102
RTVSPost2010Prop44ColorIndex
 90
        5
102
RTVSPost2010Prop44ColorRGB
 90
      255
102
RTVSPost2010PropOp44
 70
     1
102
RTVSPost2010Prop45
280
     0
102
RTVSPost2010PropOp45
 70
     1
102
RTVSPost2010Prop46
 90
       50
102
RTVSPost2010PropOp46
 70
     1
102
RTVSPost2010Prop47
 90
       50
102
RTVSPost2010PropOp47
 70
     1
102
RTVSPost2010Prop48
 90
       50
102
RTVSPost2010PropOp48
 70
     1
102
RTVSPost2010Prop49
280
     0
102
RTVSPost2010PropOp49
 70
     1
102
RTVSPost2010Prop50
 90
       50
102
RTVSPost2010PropOp50
 70
     1
102
RTVSPost2010Prop51ColorIndex
 90
      256
102
RTVSPost2010Prop51ColorRGB
 90
-16777216
102
RTVSPost2010PropOp51
 70
     0
102
RTVSPost2010Prop52
140
1.0
102
RTVSPost2010PropOp52
 70
     0
102
RTVSPost2010Prop53
 90
        2
102
RTVSPost2010PropOp53
 70
     1
102
RTVSPost2010Prop54
  1
strokes_ogs.tif
102
RTVSPost2010PropOp54
 70
     1
102
RTVSPost2010Prop55
280
     0
102
RTVSPost2010PropOp55
 70
     1
102
RTVSPost2010Prop56
140
1.0
102
RTVSPost2010PropOp56
 70
     1
102
RTVSPost2010Prop57
140
1.0
102
RTVSPost2010PropOp57
 70
     1
  0
XRECORD
  5
31F
102
{ACAD_REACTORS
330
31E
102
}
330
31E
100
AcDbXrecord
280
     1
102
RTVSPropertyOp0
 70
     1
102
RTVSPropertyOp1
 70
     1
102
RTVSPropertyOp2
 70
     1
102
RTVSPropertyOp3
 70
     1
102
RTVSPropertyOp4
 70
     1
102
RTVSPropertyOp5
 70
     1
102
RTVSPropertyOp6
 70
     1
102
RTVSPropertyOp7
 70
     1
102
RTVSPropertyOp8
 70
     1
102
RTVSPropertyOp9
 70
     1
102
RTVSPropertyOp10
 70
     1
102
RTVSPropertyOp11
 70
     1
102
RTVSPropertyOp12
 70
     1
102
RTVSPropertyOp13
 70
     1
102
RTVSPropertyOp14
 70
     1
102
RTVSPropertyOp15
 70
     1
102
RTVSPropertyOp16
 70
     1
102
RTVSPropertyOp17
 70
     1
102
RTVSPropertyOp18
 70
     1
102
RTVSPropertyOp19
 70
     1
102
RTVSPropertyOp20
 70
     1
102
RTVSPropertyOp21
 70
     1
102
RTVSPropertyOp22
 70
     1
102
RTVSPropertyOp23
 70
     1
102
RTVSPropertyOp24
 70
     1
102
RTVSPropertyOp25
 70
     1
102
RTVSPropertyOp26
 70
     1
102
RTVSPropertyOp27
 70
     1
102
RTVSPropertyOp28
 70
     1
102
RTVSPropertyOp29
 70
     1
102
RTVSPropertyOp30
 70
     1
102
RTVSPropertyOp31
 70
     1
102
RTVSPropertyOp32
 70
     1
102
RTVSPropertyOp33
 70
     1
102
RTVSPropertyOp34
 70
     1
102
RTVSPropertyOp35
 70
     1
102
RTVSPropertyOp36
 70
     1
102
RTVSPropertyOp37
 70
     1
102
RTVSPropertyOp38
 70
     1
102
RTVSPropertyOp39
 70
     1
102
RTVSPropertyOp40
 70
     1
102
RTVSPropertyOp41
 70
     1
102
RTVSPropertyOp42
 70
     1
102
RTVSPropertyOp43
 70
     1
102
RTVSPropertyOp44
 70
     1
102
RTVSPropertyOp45
 70
     1
102
RTVSPropertyOp46
 70
     1
102
RTVSPropertyOp47
 70
     1
102
RTVSPropertyOp48
 70
     1
102
RTVSPropertyOp49
 70
     1
102
RTVSPropertyOp50
 70
     1
102
RTVSPropertyOp51
 70
     0
102
RTVSPropertyOp52
 70
     0
102
RTVSPropertyOp53
 70
     1
102
RTVSPropertyOp54
 70
     1
102
RTVSPropertyOp55
 70
     1
102
RTVSPropertyOp56
 70
     1
102
RTVSPropertyOp57
 70
     1
102
RTVSPost2010Prop28
280
     0
102
RTVSPost2010PropOp28
 70
     1
102
RTVSPost2010Prop29
280
     1
102
RTVSPost2010PropOp29
 70
     1
102
RTVSPost2010Prop30
280
     1
102
RTVSPost2010PropOp30
 70
     1
102
RTVSPost2010Prop31
280
     0
102
RTVSPost2010PropOp31
 70
     1
102
RTVSPost2010Prop32
280
     0
102
RTVSPost2010PropOp32
 70
     1
102
RTVSPost2010Prop33
280
     0
102
RTVSPost2010PropOp33
 70
     1
102
RTVSPost2010Prop34
280
     0
102
RTVSPost2010PropOp34
 70
     1
102
RTVSPost2010Prop35
280
     0
102
RTVSPost2010PropOp35
 70
     1
102
RTVSPost2010Prop36
280
     0
102
RTVSPost2010PropOp36
 70
     1
102
RTVSPost2010Prop37
 90
       50
102
RTVSPost2010PropOp37
 70
     1
102
RTVSPost2010Prop38
140
0.0
102
RTVSPost2010PropOp38
 70
     1
102
RTVSPost2010Prop39
140
1.0
102
RTVSPost2010PropOp39
 70
     1
102
RTVSPost2010Prop40
 90
        0
102
RTVSPost2010PropOp40
 70
     1
102
RTVSPost2010Prop41ColorIndex
 90
       18
102
RTVSPost2010Prop41ColorRGB
 90
        0
102
RTVSPost2010PropOp41
 70
     1
102
RTVSPost2010Prop42
 90
       50
102
RTVSPost2010PropOp42
 70
     1
102
RTVSPost2010Prop43
 90
        3
102
RTVSPost2010PropOp43
 70
     1
102
RTVSPost2010Prop44ColorIndex
 90
        5
102
RTVSPost2010Prop44ColorRGB
 90
      255
102
RTVSPost2010PropOp44
 70
     1
102
RTVSPost2010Prop45
280
     0
102
RTVSPost2010PropOp45
 70
     1
102
RTVSPost2010Prop46
 90
       50
102
RTVSPost2010PropOp46
 70
     1
102
RTVSPost2010Prop47
 90
       50
102
RTVSPost2010PropOp47
 70
     1
102
RTVSPost2010Prop48
 90
       50
102
RTVSPost2010PropOp48
 70
     1
102
RTVSPost2010Prop49
280
     0
102
RTVSPost2010PropOp49
 70
     1
102
RTVSPost2010Prop50
 90
       50
102
RTVSPost2010PropOp50
 70
     1
102
RTVSPost2010Prop51ColorIndex
 90
      256
102
RTVSPost2010Prop51ColorRGB
 90
-16777216
102
RTVSPost2010PropOp51
 70
     0
102
RTVSPost2010Prop52
140
1.0
102
RTVSPost2010PropOp52
 70
     0
102
RTVSPost2010Prop53
 90
        2
102
RTVSPost2010PropOp53
 70
     1
102
RTVSPost2010Prop54
  1
strokes_ogs.tif
102
RTVSPost2010PropOp54
 70
     1
102
RTVSPost2010Prop55
280
     0
102
RTVSPost2010PropOp55
 70
     1
102
RTVSPost2010Prop56
140
1.0
102
RTVSPost2010PropOp56
 70
     1
102
RTVSPost2010Prop57
140
1.0
102
RTVSPost2010PropOp57
 70
     1
  0
XRECORD
  5
31D
102
{ACAD_REACTORS
330
31C
102
}
330
31C
100
AcDbXrecord
280
     1
102
RTVSPropertyOp0
 70
     1
102
RTVSPropertyOp1
 70
     1
102
RTVSPropertyOp2
 70
     1
102
RTVSPropertyOp3
 70
     1
102
RTVSPropertyOp4
 70
     1
102
RTVSPropertyOp5
 70
     1
102
RTVSPropertyOp6
 70
     1
102
RTVSPropertyOp7
 70
     1
102
RTVSPropertyOp8
 70
     1
102
RTVSPropertyOp9
 70
     1
102
RTVSPropertyOp10
 70
     1
102
RTVSPropertyOp11
 70
     1
102
RTVSPropertyOp12
 70
     1
102
RTVSPropertyOp13
 70
     1
102
RTVSPropertyOp14
 70
     1
102
RTVSPropertyOp15
 70
     1
102
RTVSPropertyOp16
 70
     1
102
RTVSPropertyOp17
 70
     1
102
RTVSPropertyOp18
 70
     1
102
RTVSPropertyOp19
 70
     1
102
RTVSPropertyOp20
 70
     1
102
RTVSPropertyOp21
 70
     1
102
RTVSPropertyOp22
 70
     1
102
RTVSPropertyOp23
 70
     1
102
RTVSPropertyOp24
 70
     1
102
RTVSPropertyOp25
 70
     1
102
RTVSPropertyOp26
 70
     1
102
RTVSPropertyOp27
 70
     1
102
RTVSPropertyOp28
 70
     1
102
RTVSPropertyOp29
 70
     1
102
RTVSPropertyOp30
 70
     1
102
RTVSPropertyOp31
 70
     1
102
RTVSPropertyOp32
 70
     1
102
RTVSPropertyOp33
 70
     1
102
RTVSPropertyOp34
 70
     1
102
RTVSPropertyOp35
 70
     1
102
RTVSPropertyOp36
 70
     1
102
RTVSPropertyOp37
 70
     1
102
RTVSPropertyOp38
 70
     1
102
RTVSPropertyOp39
 70
     1
102
RTVSPropertyOp40
 70
     1
102
RTVSPropertyOp41
 70
     1
102
RTVSPropertyOp42
 70
     1
102
RTVSPropertyOp43
 70
     1
102
RTVSPropertyOp44
 70
     1
102
RTVSPropertyOp45
 70
     1
102
RTVSPropertyOp46
 70
     1
102
RTVSPropertyOp47
 70
     1
102
RTVSPropertyOp48
 70
     1
102
RTVSPropertyOp49
 70
     1
102
RTVSPropertyOp50
 70
     1
102
RTVSPropertyOp51
 70
     0
102
RTVSPropertyOp52
 70
     0
102
RTVSPropertyOp53
 70
     1
102
RTVSPropertyOp54
 70
     1
102
RTVSPropertyOp55
 70
     1
102
RTVSPropertyOp56
 70
     1
102
RTVSPropertyOp57
 70
     1
102
RTVSPost2010Prop28
280
     0
102
RTVSPost2010PropOp28
 70
     1
102
RTVSPost2010Prop29
280
     1
102
RTVSPost2010PropOp29
 70
     1
102
RTVSPost2010Prop30
280
     1
102
RTVSPost2010PropOp30
 70
     1
102
RTVSPost2010Prop31
280
     0
102
RTVSPost2010PropOp31
 70
     1
102
RTVSPost2010Prop32
280
     0
102
RTVSPost2010PropOp32
 70
     1
102
RTVSPost2010Prop33
280
     0
102
RTVSPost2010PropOp33
 70
     1
102
RTVSPost2010Prop34
280
     0
102
RTVSPost2010PropOp34
 70
     1
102
RTVSPost2010Prop35
280
     0
102
RTVSPost2010PropOp35
 70
     1
102
RTVSPost2010Prop36
280
     0
102
RTVSPost2010PropOp36
 70
     1
102
RTVSPost2010Prop37
 90
       50
102
RTVSPost2010PropOp37
 70
     1
102
RTVSPost2010Prop38
140
0.0
102
RTVSPost2010PropOp38
 70
     1
102
RTVSPost2010Prop39
140
1.0
102
RTVSPost2010PropOp39
 70
     1
102
RTVSPost2010Prop40
 90
        0
102
RTVSPost2010PropOp40
 70
     1
102
RTVSPost2010Prop41ColorIndex
 90
       18
102
RTVSPost2010Prop41ColorRGB
 90
        0
102
RTVSPost2010PropOp41
 70
     1
102
RTVSPost2010Prop42
 90
       50
102
RTVSPost2010PropOp42
 70
     1
102
RTVSPost2010Prop43
 90
        3
102
RTVSPost2010PropOp43
 70
     1
102
RTVSPost2010Prop44ColorIndex
 90
        5
102
RTVSPost2010Prop44ColorRGB
 90
      255
102
RTVSPost2010PropOp44
 70
     1
102
RTVSPost2010Prop45
280
     0
102
RTVSPost2010PropOp45
 70
     1
102
RTVSPost2010Prop46
 90
       50
102
RTVSPost2010PropOp46
 70
     1
102
RTVSPost2010Prop47
 90
       50
102
RTVSPost2010PropOp47
 70
     1
102
RTVSPost2010Prop48
 90
       50
102
RTVSPost2010PropOp48
 70
     1
102
RTVSPost2010Prop49
280
     0
102
RTVSPost2010PropOp49
 70
     1
102
RTVSPost2010Prop50
 90
       50
102
RTVSPost2010PropOp50
 70
     1
102
RTVSPost2010Prop51ColorIndex
 90
      256
102
RTVSPost2010Prop51ColorRGB
 90
-16777216
102
RTVSPost2010PropOp51
 70
     0
102
RTVSPost2010Prop52
140
1.0
102
RTVSPost2010PropOp52
 70
     0
102
RTVSPost2010Prop53
 90
        2
102
RTVSPost2010PropOp53
 70
     1
102
RTVSPost2010Prop54
  1
strokes_ogs.tif
102
RTVSPost2010PropOp54
 70
     1
102
RTVSPost2010Prop55
280
     0
102
RTVSPost2010PropOp55
 70
     1
102
RTVSPost2010Prop56
140
1.0
102
RTVSPost2010PropOp56
 70
     1
102
RTVSPost2010Prop57
140
1.0
102
RTVSPost2010PropOp57
 70
     1
  0
XRECORD
  5
317
102
{ACAD_REACTORS
330
316
102
}
330
316
100
AcDbXrecord
280
     1
102
RTVSPropertyOp0
 70
     1
102
RTVSPropertyOp1
 70
     1
102
RTVSPropertyOp2
 70
     1
102
RTVSPropertyOp3
 70
     1
102
RTVSPropertyOp4
 70
     1
102
RTVSPropertyOp5
 70
     1
102
RTVSPropertyOp6
 70
     1
102
RTVSPropertyOp7
 70
     1
102
RTVSPropertyOp8
 70
     1
102
RTVSPropertyOp9
 70
     1
102
RTVSPropertyOp10
 70
     1
102
RTVSPropertyOp11
 70
     1
102
RTVSPropertyOp12
 70
     1
102
RTVSPropertyOp13
 70
     1
102
RTVSPropertyOp14
 70
     1
102
RTVSPropertyOp15
 70
     1
102
RTVSPropertyOp16
 70
     1
102
RTVSPropertyOp17
 70
     1
102
RTVSPropertyOp18
 70
     1
102
RTVSPropertyOp19
 70
     1
102
RTVSPropertyOp20
 70
     1
102
RTVSPropertyOp21
 70
     1
102
RTVSPropertyOp22
 70
     1
102
RTVSPropertyOp23
 70
     1
102
RTVSPropertyOp24
 70
     1
102
RTVSPropertyOp25
 70
     1
102
RTVSPropertyOp26
 70
     1
102
RTVSPropertyOp27
 70
     1
102
RTVSPropertyOp28
 70
     1
102
RTVSPropertyOp29
 70
     1
102
RTVSPropertyOp30
 70
     1
102
RTVSPropertyOp31
 70
     1
102
RTVSPropertyOp32
 70
     1
102
RTVSPropertyOp33
 70
     1
102
RTVSPropertyOp34
 70
     1
102
RTVSPropertyOp35
 70
     1
102
RTVSPropertyOp36
 70
     1
102
RTVSPropertyOp37
 70
     1
102
RTVSPropertyOp38
 70
     1
102
RTVSPropertyOp39
 70
     1
102
RTVSPropertyOp40
 70
     1
102
RTVSPropertyOp41
 70
     1
102
RTVSPropertyOp42
 70
     1
102
RTVSPropertyOp43
 70
     1
102
RTVSPropertyOp44
 70
     1
102
RTVSPropertyOp45
 70
     1
102
RTVSPropertyOp46
 70
     1
102
RTVSPropertyOp47
 70
     1
102
RTVSPropertyOp48
 70
     1
102
RTVSPropertyOp49
 70
     1
102
RTVSPropertyOp50
 70
     1
102
RTVSPropertyOp51
 70
     0
102
RTVSPropertyOp52
 70
     0
102
RTVSPropertyOp53
 70
     1
102
RTVSPropertyOp54
 70
     1
102
RTVSPropertyOp55
 70
     1
102
RTVSPropertyOp56
 70
     1
102
RTVSPropertyOp57
 70
     1
102
RTVSPost2010Prop28
280
     0
102
RTVSPost2010PropOp28
 70
     1
102
RTVSPost2010Prop29
280
     1
102
RTVSPost2010PropOp29
 70
     1
102
RTVSPost2010Prop30
280
     1
102
RTVSPost2010PropOp30
 70
     1
102
RTVSPost2010Prop31
280
     0
102
RTVSPost2010PropOp31
 70
     1
102
RTVSPost2010Prop32
280
     0
102
RTVSPost2010PropOp32
 70
     1
102
RTVSPost2010Prop33
280
     0
102
RTVSPost2010PropOp33
 70
     1
102
RTVSPost2010Prop34
280
     0
102
RTVSPost2010PropOp34
 70
     1
102
RTVSPost2010Prop35
280
     0
102
RTVSPost2010PropOp35
 70
     1
102
RTVSPost2010Prop36
280
     0
102
RTVSPost2010PropOp36
 70
     1
102
RTVSPost2010Prop37
 90
       50
102
RTVSPost2010PropOp37
 70
     1
102
RTVSPost2010Prop38
140
0.0
102
RTVSPost2010PropOp38
 70
     1
102
RTVSPost2010Prop39
140
1.0
102
RTVSPost2010PropOp39
 70
     1
102
RTVSPost2010Prop40
 90
        0
102
RTVSPost2010PropOp40
 70
     1
102
RTVSPost2010Prop41ColorIndex
 90
       18
102
RTVSPost2010Prop41ColorRGB
 90
        0
102
RTVSPost2010PropOp41
 70
     1
102
RTVSPost2010Prop42
 90
       50
102
RTVSPost2010PropOp42
 70
     1
102
RTVSPost2010Prop43
 90
        3
102
RTVSPost2010PropOp43
 70
     1
102
RTVSPost2010Prop44ColorIndex
 90
        5
102
RTVSPost2010Prop44ColorRGB
 90
      255
102
RTVSPost2010PropOp44
 70
     1
102
RTVSPost2010Prop45
280
     0
102
RTVSPost2010PropOp45
 70
     1
102
RTVSPost2010Prop46
 90
       50
102
RTVSPost2010PropOp46
 70
     1
102
RTVSPost2010Prop47
 90
       50
102
RTVSPost2010PropOp47
 70
     1
102
RTVSPost2010Prop48
 90
       50
102
RTVSPost2010PropOp48
 70
     1
102
RTVSPost2010Prop49
280
     0
102
RTVSPost2010PropOp49
 70
     1
102
RTVSPost2010Prop50
 90
       50
102
RTVSPost2010PropOp50
 70
     1
102
RTVSPost2010Prop51ColorIndex
 90
      256
102
RTVSPost2010Prop51ColorRGB
 90
-16777216
102
RTVSPost2010PropOp51
 70
     0
102
RTVSPost2010Prop52
140
1.0
102
RTVSPost2010PropOp52
 70
     0
102
RTVSPost2010Prop53
 90
        2
102
RTVSPost2010PropOp53
 70
     1
102
RTVSPost2010Prop54
  1
strokes_ogs.tif
102
RTVSPost2010PropOp54
 70
     1
102
RTVSPost2010Prop55
280
     0
102
RTVSPost2010PropOp55
 70
     1
102
RTVSPost2010Prop56
140
1.0
102
RTVSPost2010PropOp56
 70
     1
102
RTVSPost2010Prop57
140
1.0
102
RTVSPost2010PropOp57
 70
     1
  0
XRECORD
  5
319
102
{ACAD_REACTORS
330
318
102
}
330
318
100
AcDbXrecord
280
     1
102
RTVSPropertyOp0
 70
     1
102
RTVSPropertyOp1
 70
     1
102
RTVSPropertyOp2
 70
     1
102
RTVSPropertyOp3
 70
     1
102
RTVSPropertyOp4
 70
     1
102
RTVSPropertyOp5
 70
     1
102
RTVSPropertyOp6
 70
     1
102
RTVSPropertyOp7
 70
     1
102
RTVSPropertyOp8
 70
     1
102
RTVSPropertyOp9
 70
     1
102
RTVSPropertyOp10
 70
     1
102
RTVSPropertyOp11
 70
     1
102
RTVSPropertyOp12
 70
     1
102
RTVSPropertyOp13
 70
     1
102
RTVSPropertyOp14
 70
     1
102
RTVSPropertyOp15
 70
     1
102
RTVSPropertyOp16
 70
     1
102
RTVSPropertyOp17
 70
     1
102
RTVSPropertyOp18
 70
     1
102
RTVSPropertyOp19
 70
     1
102
RTVSPropertyOp20
 70
     1
102
RTVSPropertyOp21
 70
     1
102
RTVSPropertyOp22
 70
     1
102
RTVSPropertyOp23
 70
     1
102
RTVSPropertyOp24
 70
     1
102
RTVSPropertyOp25
 70
     1
102
RTVSPropertyOp26
 70
     1
102
RTVSPropertyOp27
 70
     1
102
RTVSPropertyOp28
 70
     1
102
RTVSPropertyOp29
 70
     1
102
RTVSPropertyOp30
 70
     1
102
RTVSPropertyOp31
 70
     1
102
RTVSPropertyOp32
 70
     1
102
RTVSPropertyOp33
 70
     1
102
RTVSPropertyOp34
 70
     1
102
RTVSPropertyOp35
 70
     1
102
RTVSPropertyOp36
 70
     1
102
RTVSPropertyOp37
 70
     1
102
RTVSPropertyOp38
 70
     1
102
RTVSPropertyOp39
 70
     1
102
RTVSPropertyOp40
 70
     1
102
RTVSPropertyOp41
 70
     1
102
RTVSPropertyOp42
 70
     1
102
RTVSPropertyOp43
 70
     1
102
RTVSPropertyOp44
 70
     1
102
RTVSPropertyOp45
 70
     1
102
RTVSPropertyOp46
 70
     1
102
RTVSPropertyOp47
 70
     1
102
RTVSPropertyOp48
 70
     1
102
RTVSPropertyOp49
 70
     1
102
RTVSPropertyOp50
 70
     1
102
RTVSPropertyOp51
 70
     0
102
RTVSPropertyOp52
 70
     0
102
RTVSPropertyOp53
 70
     1
102
RTVSPropertyOp54
 70
     1
102
RTVSPropertyOp55
 70
     1
102
RTVSPropertyOp56
 70
     1
102
RTVSPropertyOp57
 70
     1
102
RTVSPost2010Prop28
280
     0
102
RTVSPost2010PropOp28
 70
     1
102
RTVSPost2010Prop29
280
     1
102
RTVSPost2010PropOp29
 70
     1
102
RTVSPost2010Prop30
280
     1
102
RTVSPost2010PropOp30
 70
     1
102
RTVSPost2010Prop31
280
     0
102
RTVSPost2010PropOp31
 70
     1
102
RTVSPost2010Prop32
280
     0
102
RTVSPost2010PropOp32
 70
     1
102
RTVSPost2010Prop33
280
     0
102
RTVSPost2010PropOp33
 70
     1
102
RTVSPost2010Prop34
280
     0
102
RTVSPost2010PropOp34
 70
     1
102
RTVSPost2010Prop35
280
     0
102
RTVSPost2010PropOp35
 70
     1
102
RTVSPost2010Prop36
280
     0
102
RTVSPost2010PropOp36
 70
     1
102
RTVSPost2010Prop37
 90
       50
102
RTVSPost2010PropOp37
 70
     1
102
RTVSPost2010Prop38
140
0.0
102
RTVSPost2010PropOp38
 70
     1
102
RTVSPost2010Prop39
140
1.0
102
RTVSPost2010PropOp39
 70
     1
102
RTVSPost2010Prop40
 90
        0
102
RTVSPost2010PropOp40
 70
     1
102
RTVSPost2010Prop41ColorIndex
 90
       18
102
RTVSPost2010Prop41ColorRGB
 90
        0
102
RTVSPost2010PropOp41
 70
     1
102
RTVSPost2010Prop42
 90
       50
102
RTVSPost2010PropOp42
 70
     1
102
RTVSPost2010Prop43
 90
        3
102
RTVSPost2010PropOp43
 70
     1
102
RTVSPost2010Prop44ColorIndex
 90
        5
102
RTVSPost2010Prop44ColorRGB
 90
      255
102
RTVSPost2010PropOp44
 70
     1
102
RTVSPost2010Prop45
280
     0
102
RTVSPost2010PropOp45
 70
     1
102
RTVSPost2010Prop46
 90
       50
102
RTVSPost2010PropOp46
 70
     1
102
RTVSPost2010Prop47
 90
       50
102
RTVSPost2010PropOp47
 70
     1
102
RTVSPost2010Prop48
 90
       50
102
RTVSPost2010PropOp48
 70
     1
102
RTVSPost2010Prop49
280
     0
102
RTVSPost2010PropOp49
 70
     1
102
RTVSPost2010Prop50
 90
       50
102
RTVSPost2010PropOp50
 70
     1
102
RTVSPost2010Prop51ColorIndex
 90
      256
102
RTVSPost2010Prop51ColorRGB
 90
-16777216
102
RTVSPost2010PropOp51
 70
     0
102
RTVSPost2010Prop52
140
1.0
102
RTVSPost2010PropOp52
 70
     0
102
RTVSPost2010Prop53
 90
        2
102
RTVSPost2010PropOp53
 70
     1
102
RTVSPost2010Prop54
  1
strokes_ogs.tif
102
RTVSPost2010PropOp54
 70
     1
102
RTVSPost2010Prop55
280
     0
102
RTVSPost2010PropOp55
 70
     1
102
RTVSPost2010Prop56
140
1.0
102
RTVSPost2010PropOp56
 70
     1
102
RTVSPost2010Prop57
140
1.0
102
RTVSPost2010PropOp57
 70
     1
  0
XRECORD
  5
309
102
{ACAD_REACTORS
330
308
102
}
330
308
100
AcDbXrecord
280
     1
102
RTVSPropertyOp0
 70
     1
102
RTVSPropertyOp1
 70
     1
102
RTVSPropertyOp2
 70
     1
102
RTVSPropertyOp3
 70
     1
102
RTVSPropertyOp4
 70
     1
102
RTVSPropertyOp5
 70
     1
102
RTVSPropertyOp6
 70
     1
102
RTVSPropertyOp7
 70
     1
102
RTVSPropertyOp8
 70
     1
102
RTVSPropertyOp9
 70
     1
102
RTVSPropertyOp10
 70
     1
102
RTVSPropertyOp11
 70
     1
102
RTVSPropertyOp12
 70
     1
102
RTVSPropertyOp13
 70
     1
102
RTVSPropertyOp14
 70
     1
102
RTVSPropertyOp15
 70
     1
102
RTVSPropertyOp16
 70
     1
102
RTVSPropertyOp17
 70
     1
102
RTVSPropertyOp18
 70
     1
102
RTVSPropertyOp19
 70
     1
102
RTVSPropertyOp20
 70
     1
102
RTVSPropertyOp21
 70
     1
102
RTVSPropertyOp22
 70
     1
102
RTVSPropertyOp23
 70
     1
102
RTVSPropertyOp24
 70
     1
102
RTVSPropertyOp25
 70
     1
102
RTVSPropertyOp26
 70
     1
102
RTVSPropertyOp27
 70
     1
102
RTVSPropertyOp28
 70
     1
102
RTVSPropertyOp29
 70
     1
102
RTVSPropertyOp30
 70
     1
102
RTVSPropertyOp31
 70
     1
102
RTVSPropertyOp32
 70
     1
102
RTVSPropertyOp33
 70
     1
102
RTVSPropertyOp34
 70
     1
102
RTVSPropertyOp35
 70
     1
102
RTVSPropertyOp36
 70
     1
102
RTVSPropertyOp37
 70
     1
102
RTVSPropertyOp38
 70
     1
102
RTVSPropertyOp39
 70
     1
102
RTVSPropertyOp40
 70
     1
102
RTVSPropertyOp41
 70
     1
102
RTVSPropertyOp42
 70
     1
102
RTVSPropertyOp43
 70
     1
102
RTVSPropertyOp44
 70
     1
102
RTVSPropertyOp45
 70
     1
102
RTVSPropertyOp46
 70
     1
102
RTVSPropertyOp47
 70
     1
102
RTVSPropertyOp48
 70
     1
102
RTVSPropertyOp49
 70
     1
102
RTVSPropertyOp50
 70
     1
102
RTVSPropertyOp51
 70
     0
102
RTVSPropertyOp52
 70
     0
102
RTVSPropertyOp53
 70
     1
102
RTVSPropertyOp54
 70
     1
102
RTVSPropertyOp55
 70
     1
102
RTVSPropertyOp56
 70
     1
102
RTVSPropertyOp57
 70
     1
102
RTVSPost2010Prop28
280
     0
102
RTVSPost2010PropOp28
 70
     1
102
RTVSPost2010Prop29
280
     1
102
RTVSPost2010PropOp29
 70
     1
102
RTVSPost2010Prop30
280
     1
102
RTVSPost2010PropOp30
 70
     1
102
RTVSPost2010Prop31
280
     0
102
RTVSPost2010PropOp31
 70
     1
102
RTVSPost2010Prop32
280
     0
102
RTVSPost2010PropOp32
 70
     1
102
RTVSPost2010Prop33
280
     0
102
RTVSPost2010PropOp33
 70
     1
102
RTVSPost2010Prop34
280
     0
102
RTVSPost2010PropOp34
 70
     1
102
RTVSPost2010Prop35
280
     0
102
RTVSPost2010PropOp35
 70
     1
102
RTVSPost2010Prop36
280
     0
102
RTVSPost2010PropOp36
 70
     1
102
RTVSPost2010Prop37
 90
       50
102
RTVSPost2010PropOp37
 70
     1
102
RTVSPost2010Prop38
140
0.0
102
RTVSPost2010PropOp38
 70
     1
102
RTVSPost2010Prop39
140
1.0
102
RTVSPost2010PropOp39
 70
     1
102
RTVSPost2010Prop40
 90
        0
102
RTVSPost2010PropOp40
 70
     1
102
RTVSPost2010Prop41ColorIndex
 90
       18
102
RTVSPost2010Prop41ColorRGB
 90
        0
102
RTVSPost2010PropOp41
 70
     1
102
RTVSPost2010Prop42
 90
       50
102
RTVSPost2010PropOp42
 70
     1
102
RTVSPost2010Prop43
 90
        3
102
RTVSPost2010PropOp43
 70
     1
102
RTVSPost2010Prop44ColorIndex
 90
        5
102
RTVSPost2010Prop44ColorRGB
 90
      255
102
RTVSPost2010PropOp44
 70
     1
102
RTVSPost2010Prop45
280
     0
102
RTVSPost2010PropOp45
 70
     1
102
RTVSPost2010Prop46
 90
       50
102
RTVSPost2010PropOp46
 70
     1
102
RTVSPost2010Prop47
 90
       50
102
RTVSPost2010PropOp47
 70
     1
102
RTVSPost2010Prop48
 90
       50
102
RTVSPost2010PropOp48
 70
     1
102
RTVSPost2010Prop49
280
     0
102
RTVSPost2010PropOp49
 70
     1
102
RTVSPost2010Prop50
 90
       50
102
RTVSPost2010PropOp50
 70
     1
102
RTVSPost2010Prop51ColorIndex
 90
      256
102
RTVSPost2010Prop51ColorRGB
 90
-16777216
102
RTVSPost2010PropOp51
 70
     0
102
RTVSPost2010Prop52
140
1.0
102
RTVSPost2010PropOp52
 70
     0
102
RTVSPost2010Prop53
 90
        2
102
RTVSPost2010PropOp53
 70
     1
102
RTVSPost2010Prop54
  1
strokes_ogs.tif
102
RTVSPost2010PropOp54
 70
     1
102
RTVSPost2010Prop55
280
     0
102
RTVSPost2010PropOp55
 70
     1
102
RTVSPost2010Prop56
140
1.0
102
RTVSPost2010PropOp56
 70
     1
102
RTVSPost2010Prop57
140
1.0
102
RTVSPost2010PropOp57
 70
     1
  0
XRECORD
  5
2FB
102
{ACAD_REACTORS
330
2FA
102
}
330
2FA
100
AcDbXrecord
280
     1
102
RTVSPropertyOp0
 70
     1
102
RTVSPropertyOp1
 70
     1
102
RTVSPropertyOp2
 70
     1
102
RTVSPropertyOp3
 70
     1
102
RTVSPropertyOp4
 70
     1
102
RTVSPropertyOp5
 70
     1
102
RTVSPropertyOp6
 70
     1
102
RTVSPropertyOp7
 70
     1
102
RTVSPropertyOp8
 70
     1
102
RTVSPropertyOp9
 70
     1
102
RTVSPropertyOp10
 70
     1
102
RTVSPropertyOp11
 70
     1
102
RTVSPropertyOp12
 70
     1
102
RTVSPropertyOp13
 70
     1
102
RTVSPropertyOp14
 70
     1
102
RTVSPropertyOp15
 70
     1
102
RTVSPropertyOp16
 70
     1
102
RTVSPropertyOp17
 70
     1
102
RTVSPropertyOp18
 70
     1
102
RTVSPropertyOp19
 70
     1
102
RTVSPropertyOp20
 70
     1
102
RTVSPropertyOp21
 70
     1
102
RTVSPropertyOp22
 70
     1
102
RTVSPropertyOp23
 70
     1
102
RTVSPropertyOp24
 70
     1
102
RTVSPropertyOp25
 70
     1
102
RTVSPropertyOp26
 70
     1
102
RTVSPropertyOp27
 70
     1
102
RTVSPropertyOp28
 70
     1
102
RTVSPropertyOp29
 70
     1
102
RTVSPropertyOp30
 70
     1
102
RTVSPropertyOp31
 70
     1
102
RTVSPropertyOp32
 70
     1
102
RTVSPropertyOp33
 70
     1
102
RTVSPropertyOp34
 70
     1
102
RTVSPropertyOp35
 70
     1
102
RTVSPropertyOp36
 70
     1
102
RTVSPropertyOp37
 70
     1
102
RTVSPropertyOp38
 70
     1
102
RTVSPropertyOp39
 70
     1
102
RTVSPropertyOp40
 70
     1
102
RTVSPropertyOp41
 70
     1
102
RTVSPropertyOp42
 70
     1
102
RTVSPropertyOp43
 70
     1
102
RTVSPropertyOp44
 70
     1
102
RTVSPropertyOp45
 70
     1
102
RTVSPropertyOp46
 70
     1
102
RTVSPropertyOp47
 70
     1
102
RTVSPropertyOp48
 70
     1
102
RTVSPropertyOp49
 70
     1
102
RTVSPropertyOp50
 70
     1
102
RTVSPropertyOp51
 70
     0
102
RTVSPropertyOp52
 70
     0
102
RTVSPropertyOp53
 70
     1
102
RTVSPropertyOp54
 70
     1
102
RTVSPropertyOp55
 70
     1
102
RTVSPropertyOp56
 70
     1
102
RTVSPropertyOp57
 70
     1
102
RTVSPost2010Prop28
280
     0
102
RTVSPost2010PropOp28
 70
     1
102
RTVSPost2010Prop29
280
     1
102
RTVSPost2010PropOp29
 70
     1
102
RTVSPost2010Prop30
280
     1
102
RTVSPost2010PropOp30
 70
     1
102
RTVSPost2010Prop31
280
     0
102
RTVSPost2010PropOp31
 70
     1
102
RTVSPost2010Prop32
280
     0
102
RTVSPost2010PropOp32
 70
     1
102
RTVSPost2010Prop33
280
     0
102
RTVSPost2010PropOp33
 70
     1
102
RTVSPost2010Prop34
280
     0
102
RTVSPost2010PropOp34
 70
     1
102
RTVSPost2010Prop35
280
     0
102
RTVSPost2010PropOp35
 70
     1
102
RTVSPost2010Prop36
280
     0
102
RTVSPost2010PropOp36
 70
     1
102
RTVSPost2010Prop37
 90
       50
102
RTVSPost2010PropOp37
 70
     1
102
RTVSPost2010Prop38
140
0.0
102
RTVSPost2010PropOp38
 70
     1
102
RTVSPost2010Prop39
140
1.0
102
RTVSPost2010PropOp39
 70
     1
102
RTVSPost2010Prop40
 90
        0
102
RTVSPost2010PropOp40
 70
     1
102
RTVSPost2010Prop41ColorIndex
 90
       18
102
RTVSPost2010Prop41ColorRGB
 90
        0
102
RTVSPost2010PropOp41
 70
     1
102
RTVSPost2010Prop42
 90
       50
102
RTVSPost2010PropOp42
 70
     1
102
RTVSPost2010Prop43
 90
        3
102
RTVSPost2010PropOp43
 70
     1
102
RTVSPost2010Prop44ColorIndex
 90
        5
102
RTVSPost2010Prop44ColorRGB
 90
      255
102
RTVSPost2010PropOp44
 70
     1
102
RTVSPost2010Prop45
280
     0
102
RTVSPost2010PropOp45
 70
     1
102
RTVSPost2010Prop46
 90
       50
102
RTVSPost2010PropOp46
 70
     1
102
RTVSPost2010Prop47
 90
       50
102
RTVSPost2010PropOp47
 70
     1
102
RTVSPost2010Prop48
 90
       50
102
RTVSPost2010PropOp48
 70
     1
102
RTVSPost2010Prop49
280
     0
102
RTVSPost2010PropOp49
 70
     1
102
RTVSPost2010Prop50
 90
       50
102
RTVSPost2010PropOp50
 70
     1
102
RTVSPost2010Prop51ColorIndex
 90
      256
102
RTVSPost2010Prop51ColorRGB
 90
-16777216
102
RTVSPost2010PropOp51
 70
     0
102
RTVSPost2010Prop52
140
1.0
102
RTVSPost2010PropOp52
 70
     0
102
RTVSPost2010Prop53
 90
        2
102
RTVSPost2010PropOp53
 70
     1
102
RTVSPost2010Prop54
  1
strokes_ogs.tif
102
RTVSPost2010PropOp54
 70
     1
102
RTVSPost2010Prop55
280
     0
102
RTVSPost2010PropOp55
 70
     1
102
RTVSPost2010Prop56
140
1.0
102
RTVSPost2010PropOp56
 70
     1
102
RTVSPost2010Prop57
140
1.0
102
RTVSPost2010PropOp57
 70
     1
  0
XRECORD
  5
31B
102
{ACAD_REACTORS
330
31A
102
}
330
31A
100
AcDbXrecord
280
     1
102
RTVSPropertyOp0
 70
     1
102
RTVSPropertyOp1
 70
     1
102
RTVSPropertyOp2
 70
     1
102
RTVSPropertyOp3
 70
     1
102
RTVSPropertyOp4
 70
     1
102
RTVSPropertyOp5
 70
     1
102
RTVSPropertyOp6
 70
     1
102
RTVSPropertyOp7
 70
     1
102
RTVSPropertyOp8
 70
     1
102
RTVSPropertyOp9
 70
     1
102
RTVSPropertyOp10
 70
     1
102
RTVSPropertyOp11
 70
     1
102
RTVSPropertyOp12
 70
     1
102
RTVSPropertyOp13
 70
     1
102
RTVSPropertyOp14
 70
     1
102
RTVSPropertyOp15
 70
     1
102
RTVSPropertyOp16
 70
     1
102
RTVSPropertyOp17
 70
     1
102
RTVSPropertyOp18
 70
     1
102
RTVSPropertyOp19
 70
     1
102
RTVSPropertyOp20
 70
     1
102
RTVSPropertyOp21
 70
     1
102
RTVSPropertyOp22
 70
     1
102
RTVSPropertyOp23
 70
     1
102
RTVSPropertyOp24
 70
     1
102
RTVSPropertyOp25
 70
     1
102
RTVSPropertyOp26
 70
     1
102
RTVSPropertyOp27
 70
     1
102
RTVSPropertyOp28
 70
     1
102
RTVSPropertyOp29
 70
     1
102
RTVSPropertyOp30
 70
     1
102
RTVSPropertyOp31
 70
     1
102
RTVSPropertyOp32
 70
     1
102
RTVSPropertyOp33
 70
     1
102
RTVSPropertyOp34
 70
     1
102
RTVSPropertyOp35
 70
     1
102
RTVSPropertyOp36
 70
     1
102
RTVSPropertyOp37
 70
     1
102
RTVSPropertyOp38
 70
     1
102
RTVSPropertyOp39
 70
     1
102
RTVSPropertyOp40
 70
     1
102
RTVSPropertyOp41
 70
     1
102
RTVSPropertyOp42
 70
     1
102
RTVSPropertyOp43
 70
     1
102
RTVSPropertyOp44
 70
     1
102
RTVSPropertyOp45
 70
     1
102
RTVSPropertyOp46
 70
     1
102
RTVSPropertyOp47
 70
     1
102
RTVSPropertyOp48
 70
     1
102
RTVSPropertyOp49
 70
     1
102
RTVSPropertyOp50
 70
     1
102
RTVSPropertyOp51
 70
     0
102
RTVSPropertyOp52
 70
     0
102
RTVSPropertyOp53
 70
     1
102
RTVSPropertyOp54
 70
     1
102
RTVSPropertyOp55
 70
     1
102
RTVSPropertyOp56
 70
     1
102
RTVSPropertyOp57
 70
     1
102
RTVSPost2010Prop28
280
     0
102
RTVSPost2010PropOp28
 70
     1
102
RTVSPost2010Prop29
280
     1
102
RTVSPost2010PropOp29
 70
     1
102
RTVSPost2010Prop30
280
     1
102
RTVSPost2010PropOp30
 70
     1
102
RTVSPost2010Prop31
280
     0
102
RTVSPost2010PropOp31
 70
     1
102
RTVSPost2010Prop32
280
     0
102
RTVSPost2010PropOp32
 70
     1
102
RTVSPost2010Prop33
280
     0
102
RTVSPost2010PropOp33
 70
     1
102
RTVSPost2010Prop34
280
     0
102
RTVSPost2010PropOp34
 70
     1
102
RTVSPost2010Prop35
280
     0
102
RTVSPost2010PropOp35
 70
     1
102
RTVSPost2010Prop36
280
     0
102
RTVSPost2010PropOp36
 70
     1
102
RTVSPost2010Prop37
 90
       50
102
RTVSPost2010PropOp37
 70
     1
102
RTVSPost2010Prop38
140
0.0
102
RTVSPost2010PropOp38
 70
     1
102
RTVSPost2010Prop39
140
1.0
102
RTVSPost2010PropOp39
 70
     1
102
RTVSPost2010Prop40
 90
        0
102
RTVSPost2010PropOp40
 70
     1
102
RTVSPost2010Prop41ColorIndex
 90
       18
102
RTVSPost2010Prop41ColorRGB
 90
        0
102
RTVSPost2010PropOp41
 70
     1
102
RTVSPost2010Prop42
 90
       50
102
RTVSPost2010PropOp42
 70
     1
102
RTVSPost2010Prop43
 90
        3
102
RTVSPost2010PropOp43
 70
     1
102
RTVSPost2010Prop44ColorIndex
 90
        5
102
RTVSPost2010Prop44ColorRGB
 90
      255
102
RTVSPost2010PropOp44
 70
     1
102
RTVSPost2010Prop45
280
     0
102
RTVSPost2010PropOp45
 70
     1
102
RTVSPost2010Prop46
 90
       50
102
RTVSPost2010PropOp46
 70
     1
102
RTVSPost2010Prop47
 90
       50
102
RTVSPost2010PropOp47
 70
     1
102
RTVSPost2010Prop48
 90
       50
102
RTVSPost2010PropOp48
 70
     1
102
RTVSPost2010Prop49
280
     0
102
RTVSPost2010PropOp49
 70
     1
102
RTVSPost2010Prop50
 90
       50
102
RTVSPost2010PropOp50
 70
     1
102
RTVSPost2010Prop51ColorIndex
 90
      256
102
RTVSPost2010Prop51ColorRGB
 90
-16777216
102
RTVSPost2010PropOp51
 70
     0
102
RTVSPost2010Prop52
140
1.0
102
RTVSPost2010PropOp52
 70
     0
102
RTVSPost2010Prop53
 90
        2
102
RTVSPost2010PropOp53
 70
     1
102
RTVSPost2010Prop54
  1
strokes_ogs.tif
102
RTVSPost2010PropOp54
 70
     1
102
RTVSPost2010Prop55
280
     0
102
RTVSPost2010PropOp55
 70
     1
102
RTVSPost2010Prop56
140
1.0
102
RTVSPost2010PropOp56
 70
     1
102
RTVSPost2010Prop57
140
1.0
102
RTVSPost2010PropOp57
 70
     1
  0
ENDSEC
  0
EOF
