  0
SECTION
  2
HEADER
  9
$ACADVER
  1
AC1018
  9
$ACADMAINTVER
 70
     0
  9
$DWGCODEPAGE
  3
ANSI_1252
  9
$INSBASE
 10
0.0
 20
0.0
 30
0.0
  9
$EXTMIN
 10
-0.510941457392
 20
-1.41063411084
 30
0.0
  9
$EXTMAX
 10
26.642315538019
 20
9.93366588916
 30
0.0
  9
$LIMMIN
 10
0.0
 20
0.0
  9
$LIMMAX
 10
420.0
 20
297.0
  9
$ORTHOMODE
 70
     0
  9
$REGENMODE
 70
     1
  9
$FILLMODE
 70
     1
  9
$QTEXTMODE
 70
     0
  9
$MIRRTEXT
 70
     1
  9
$LTSCALE
 40
1.0
  9
$ATTMODE
 70
     1
  9
$TEXTSIZE
 40
2.5
  9
$TRACEWID
 40
1.0
  9
$TEXTSTYLE
  7
Standard
  9
$CLAYER
  8
0
  9
$CELTYPE
  6
ByLayer
  9
$CECOLOR
 62
   256
  9
$CELTSCALE
 40
1.0
  9
$DISPSILH
 70
     0
  9
$DIMSCALE
 40
1.0
  9
$DIMASZ
 40
2.5
  9
$DIMEXO
 40
0.625
  9
$DIMDLI
 40
3.75
  9
$DIMRND
 40
0.0
  9
$DIMDLE
 40
0.0
  9
$DIMEXE
 40
1.25
  9
$DIMTP
 40
0.0
  9
$DIMTM
 40
0.0
  9
$DIMTXT
 40
2.5
  9
$DIMCEN
 40
2.5
  9
$DIMTSZ
 40
0.0
  9
$DIMTOL
 70
     0
  9
$DIMLIM
 70
     0
  9
$DIMTIH
 70
     0
  9
$DIMTOH
 70
     0
  9
$DIMSE1
 70
     0
  9
$DIMSE2
 70
     0
  9
$DIMTAD
 70
     1
  9
$DIMZIN
 70
     8
  9
$DIMBLK
  1

  9
$DIMASO
 70
     1
  9
$DIMSHO
 70
     1
  9
$DIMPOST
  1

  9
$DIMAPOST
  1

  9
$DIMALT
 70
     0
  9
$DIMALTD
 70
     3
  9
$DIMALTF
 40
0.03937007874
  9
$DIMLFAC
 40
1.0
  9
$DIMTOFL
 70
     1
  9
$DIMTVP
 40
0.0
  9
$DIMTIX
 70
     0
  9
$DIMSOXD
 70
     0
  9
$DIMSAH
 70
     0
  9
$DIMBLK1
  1

  9
$DIMBLK2
  1

  9
$DIMSTYLE
  2
ISO-25
  9
$DIMCLRD
 70
     0
  9
$DIMCLRE
 70
     0
  9
$DIMCLRT
 70
     0
  9
$DIMTFAC
 40
1.0
  9
$DIMGAP
 40
0.625
  9
$DIMJUST
 70
     0
  9
$DIMSD1
 70
     0
  9
$DIMSD2
 70
     0
  9
$DIMTOLJ
 70
     0
  9
$DIMTZIN
 70
     8
  9
$DIMALTZ
 70
     0
  9
$DIMALTTZ
 70
     0
  9
$DIMUPT
 70
     0
  9
$DIMDEC
 70
     2
  9
$DIMTDEC
 70
     2
  9
$DIMALTU
 70
     2
  9
$DIMALTTD
 70
     3
  9
$DIMTXSTY
  7
Standard
  9
$DIMAUNIT
 70
     0
  9
$DIMADEC
 70
     0
  9
$DIMALTRND
 40
0.0
  9
$DIMAZIN
 70
     0
  9
$DIMDSEP
 70
    44
  9
$DIMATFIT
 70
     3
  9
$DIMFRAC
 70
     0
  9
$DIMLDRBLK
  1

  9
$DIMLUNIT
 70
     2
  9
$DIMLWD
 70
    -2
  9
$DIMLWE
 70
    -2
  9
$DIMTMOVE
 70
     0
  9
$LUNITS
 70
     2
  9
$LUPREC
 70
     4
  9
$SKETCHINC
 40
1.0
  9
$FILLETRAD
 40
10.0
  9
$AUNITS
 70
     0
  9
$AUPREC
 70
     0
  9
$MENU
  1
.
  9
$ELEVATION
 40
0.0
  9
$PELEVATION
 40
0.0
  9
$THICKNESS
 40
0.0
  9
$LIMCHECK
 70
     0
  9
$CHAMFERA
 40
0.0
  9
$CHAMFERB
 40
0.0
  9
$CHAMFERC
 40
0.0
  9
$CHAMFERD
 40
0.0
  9
$SKPOLY
 70
     0
  9
$TDCREATE
 40
2457081.402226539
  9
$TDUCREATE
 40
2457081.693893206
  9
$TDUPDATE
 40
2457081.4022464
  9
$TDUUPDATE
 40
2457081.693913067
  9
$TDINDWG
 40
0.0000000116
  9
$TDUSRTIMER
 40
0.0000000116
  9
$USRTIMER
 70
     1
  9
$ANGBASE
 50
0.0
  9
$ANGDIR
 70
     0
  9
$PDMODE
 70
     2
  9
$PDSIZE
 40
1.0
  9
$PLINEWID
 40
0.0
  9
$SPLFRAME
 70
     0
  9
$SPLINETYPE
 70
     6
  9
$SPLINESEGS
 70
     8
  9
$HANDSEED
  5
2DF
  9
$SURFTAB1
 70
     6
  9
$SURFTAB2
 70
     6
  9
$SURFTYPE
 70
     6
  9
$SURFU
 70
     6
  9
$SURFV
 70
     6
  9
$UCSBASE
  2

  9
$UCSNAME
  2

  9
$UCSORG
 10
0.0
 20
0.0
 30
0.0
  9
$UCSXDIR
 10
1.0
 20
0.0
 30
0.0
  9
$UCSYDIR
 10
0.0
 20
1.0
 30
0.0
  9
$UCSORTHOREF
  2

  9
$UCSORTHOVIEW
 70
     0
  9
$UCSORGTOP
 10
0.0
 20
0.0
 30
0.0
  9
$UCSORGBOTTOM
 10
0.0
 20
0.0
 30
0.0
  9
$UCSORGLEFT
 10
0.0
 20
0.0
 30
0.0
  9
$UCSORGRIGHT
 10
0.0
 20
0.0
 30
0.0
  9
$UCSORGFRONT
 10
0.0
 20
0.0
 30
0.0
  9
$UCSORGBACK
 10
0.0
 20
0.0
 30
0.0
  9
$PUCSBASE
  2

  9
$PUCSNAME
  2

  9
$PUCSORG
 10
0.0
 20
0.0
 30
0.0
  9
$PUCSXDIR
 10
1.0
 20
0.0
 30
0.0
  9
$PUCSYDIR
 10
0.0
 20
1.0
 30
0.0
  9
$PUCSORTHOREF
  2

  9
$PUCSORTHOVIEW
 70
     0
  9
$PUCSORGTOP
 10
0.0
 20
0.0
 30
0.0
  9
$PUCSORGBOTTOM
 10
0.0
 20
0.0
 30
0.0
  9
$PUCSORGLEFT
 10
0.0
 20
0.0
 30
0.0
  9
$PUCSORGRIGHT
 10
0.0
 20
0.0
 30
0.0
  9
$PUCSORGFRONT
 10
0.0
 20
0.0
 30
0.0
  9
$PUCSORGBACK
 10
0.0
 20
0.0
 30
0.0
  9
$USERI1
 70
     0
  9
$USERI2
 70
     0
  9
$USERI3
 70
     0
  9
$USERI4
 70
     0
  9
$USERI5
 70
     0
  9
$USERR1
 40
0.0
  9
$USERR2
 40
0.0
  9
$USERR3
 40
0.0
  9
$USERR4
 40
0.0
  9
$USERR5
 40
0.0
  9
$WORLDVIEW
 70
     1
  9
$SHADEDGE
 70
     3
  9
$SHADEDIF
 70
    70
  9
$TILEMODE
 70
     1
  9
$MAXACTVP
 70
    64
  9
$PINSBASE
 10
0.0
 20
0.0
 30
0.0
  9
$PLIMCHECK
 70
     0
  9
$PEXTMIN
 10
1.000000000000E+20
 20
1.000000000000E+20
 30
1.000000000000E+20
  9
$PEXTMAX
 10
-1.000000000000E+20
 20
-1.000000000000E+20
 30
-1.000000000000E+20
  9
$PLIMMIN
 10
0.0
 20
0.0
  9
$PLIMMAX
 10
420.0
 20
297.0
  9
$UNITMODE
 70
     0
  9
$VISRETAIN
 70
     1
  9
$PLINEGEN
 70
     0
  9
$PSLTSCALE
 70
     1
  9
$TREEDEPTH
 70
  3020
  9
$CMLSTYLE
  2
Standard
  9
$CMLJUST
 70
     0
  9
$CMLSCALE
 40
20.0
  9
$PROXYGRAPHICS
 70
     1
  9
$MEASUREMENT
 70
     1
  9
$CELWEIGHT
370
    -1
  9
$ENDCAPS
280
     0
  9
$JOINSTYLE
280
     0
  9
$LWDISPLAY
290
     0
  9
$INSUNITS
 70
     4
  9
$HYPERLINKBASE
  1

  9
$STYLESHEET
  1

  9
$XEDIT
290
     1
  9
$CEPSNTYPE
380
     0
  9
$PSTYLEMODE
290
     1
  9
$FINGERPRINTGUID
  2
{B7430AAA-5142-4558-A2F2-63325F0F1615}
  9
$VERSIONGUID
  2
{FAEB1C32-E019-11D5-929B-00C0DF256EC4}
  9
$EXTNAMES
290
     1
  9
$PSVPSCALE
 40
0.0
  9
$OLESTARTUP
290
     0
  9
$SORTENTS
280
   127
  9
$INDEXCTL
280
     0
  9
$HIDETEXT
280
     1
  9
$XCLIPFRAME
290
     0
  9
$HALOGAP
280
     0
  9
$OBSCOLOR
 70
   257
  9
$OBSLTYPE
280
     0
  9
$INTERSECTIONDISPLAY
280
     0
  9
$INTERSECTIONCOLOR
 70
   257
  9
$DIMASSOC
280
     2
  9
$PROJECTNAME
  1

  0
ENDSEC
  0
SECTION
  2
CLASSES
  0
CLASS
  1
ACDBDICTIONARYWDFLT
  2
AcDbDictionaryWithDefault
  3
ObjectDBX Classes
 90
        0
 91
        4
280
     0
281
     0
  0
CLASS
  1
VISUALSTYLE
  2
AcDbVisualStyle
  3
ObjectDBX Classes
 90
     4095
 91
        4
280
     0
281
     0
  0
CLASS
  1
MATERIAL
  2
AcDbMaterial
  3
ObjectDBX Classes
 90
     1153
 91
        4
280
     0
281
     0
  0
CLASS
  1
SCALE
  2
AcDbScale
  3
ObjectDBX Classes
 90
     1153
 91
        4
280
     0
281
     0
  0
CLASS
  1
SUN
  2
AcDbSun
  3
SCENEOE
 90
     1153
 91
        4
280
     0
281
     0
  0
CLASS
  1
WIPEOUTVARIABLES
  2
AcDbWipeoutVariables
  3
WipeOut|AutoCAD Express Tool|expresstools@autodesk.com
 90
        0
 91
        4
280
     0
281
     0
  0
CLASS
  1
WIPEOUT
  2
AcDbWipeout
  3
WipeOut|AutoCAD Express Tool|expresstools@autodesk.com
 90
      127
 91
        4
280
     0
281
     1
  0
CLASS
  1
DICTIONARYVAR
  2
AcDbDictionaryVar
  3
ObjectDBX Classes
 90
        0
 91
        4
280
     0
281
     0
  0
ENDSEC
  0
SECTION
  2
TABLES
  0
TABLE
  2
VPORT
  5
8
102
{ACAD_XDICTIONARY
360
2A0
102
}
330
0
100
AcDbSymbolTable
 70
     1
  0
VPORT
  5
29
330
8
100
AcDbSymbolTableRecord
100
AcDbViewportTableRecord
  2
*Active
 70
     0
 10
0.0
 20
0.0
 11
1.0
 21
1.0
 12
13.065687040313
 22
4.26151588916
 13
0.0
 23
0.0
 14
10.0
 24
10.0
 15
10.0
 25
10.0
 16
0.0
 26
0.0
 36
1.0
 17
0.0
 27
0.0
 37
0.0
 40
11.3443
 41
2.393559496435
 42
50.0
 43
0.0
 44
0.0
 50
0.0
 51
0.0
 71
     0
 72
   100
 73
     1
 74
     3
 75
     0
 76
     0
 77
     0
 78
     0
281
     0
 65
     1
110
0.0
120
0.0
130
0.0
111
1.0
121
0.0
131
0.0
112
0.0
122
1.0
132
0.0
 79
     0
146
0.0
  0
ENDTAB
  0
TABLE
  2
LTYPE
  5
5
330
0
100
AcDbSymbolTable
 70
     2
  0
LTYPE
  5
14
330
5
100
AcDbSymbolTableRecord
100
AcDbLinetypeTableRecord
  2
ByBlock
 70
     0
  3

 72
    65
 73
     0
 40
0.0
  0
LTYPE
  5
15
330
5
100
AcDbSymbolTableRecord
100
AcDbLinetypeTableRecord
  2
ByLayer
 70
     0
  3

 72
    65
 73
     0
 40
0.0
  0
LTYPE
  5
16
330
5
100
AcDbSymbolTableRecord
100
AcDbLinetypeTableRecord
  2
Continuous
 70
     0
  3
Solid line
 72
    65
 73
     0
 40
0.0
  0
LTYPE
  5
6B
330
5
100
AcDbSymbolTableRecord
100
AcDbLinetypeTableRecord
  2
AUSGEZOGEN
 70
     0
  3

 72
    65
 73
     0
 40
0.0
  0
ENDTAB
  0
TABLE
  2
LAYER
  5
2
330
0
100
AcDbSymbolTable
 70
   257
  0
LAYER
  5
10
330
2
100
AcDbSymbolTableRecord
100
AcDbLayerTableRecord
  2
0
 70
     0
 62
     7
  6
Continuous
370
    -3
390
F
  0
LAYER
  5
70
330
2
100
AcDbSymbolTableRecord
100
AcDbLayerTableRecord
  2
profile
 70
     0
 62
     7
  6
Continuous
370
    -3
390
F
  0
LAYER
  5
71
330
2
100
AcDbSymbolTableRecord
100
AcDbLayerTableRecord
  2
text
 70
     0
 62
     7
  6
Continuous
370
    -3
390
F
  0
LAYER
  5
72
330
2
100
AcDbSymbolTableRecord
100
AcDbLayerTableRecord
  2
Layer2
 70
     0
 62
     7
  6
Continuous
370
    -3
390
F
  0
LAYER
  5
73
330
2
100
AcDbSymbolTableRecord
100
AcDbLayerTableRecord
  2
Walls
 70
     0
 62
     7
  6
Continuous
370
    -3
390
F
  0
LAYER
  5
74
330
2
100
AcDbSymbolTableRecord
100
AcDbLayerTableRecord
  2
Doors
 70
     0
 62
     7
  6
Continuous
370
    -3
390
F
  0
LAYER
  5
75
330
2
100
AcDbSymbolTableRecord
100
AcDbLayerTableRecord
  2
Windows
 70
     0
 62
     7
  6
Continuous
370
    -3
390
F
  0
LAYER
  5
76
330
2
100
AcDbSymbolTableRecord
100
AcDbLayerTableRecord
  2
Water suply
 70
     0
 62
     7
  6
Continuous
370
    -3
390
F
  0
LAYER
  5
77
330
2
100
AcDbSymbolTableRecord
100
AcDbLayerTableRecord
  2
Electrical Wiring
 70
     0
 62
     7
  6
Continuous
370
    -3
390
F
  0
LAYER
  5
78
330
2
100
AcDbSymbolTableRecord
100
AcDbLayerTableRecord
  2
Heating
 70
     0
 62
     7
  6
Continuous
370
    -3
390
F
  0
LAYER
  5
79
330
2
100
AcDbSymbolTableRecord
100
AcDbLayerTableRecord
  2
Alarm System
 70
     0
 62
     7
  6
Continuous
370
    -3
390
F
  0
LAYER
  5
7A
330
2
100
AcDbSymbolTableRecord
100
AcDbLayerTableRecord
  2
TV Ariel
 70
     0
 62
     7
  6
Continuous
370
    -3
390
F
  0
LAYER
  5
7B
330
2
100
AcDbSymbolTableRecord
100
AcDbLayerTableRecord
  2
Interior
 70
     0
 62
     7
  6
Continuous
370
    -3
390
F
  0
LAYER
  5
7C
330
2
100
AcDbSymbolTableRecord
100
AcDbLayerTableRecord
  2
Kitchen fitting
 70
     0
 62
     7
  6
Continuous
370
    -3
390
F
  0
LAYER
  5
7D
330
2
100
AcDbSymbolTableRecord
100
AcDbLayerTableRecord
  2
Layer13
 70
     0
 62
     7
  6
Continuous
370
    -3
390
F
  0
LAYER
  5
7E
330
2
100
AcDbSymbolTableRecord
100
AcDbLayerTableRecord
  2
Layer14
 70
     0
 62
     7
  6
Continuous
370
    -3
390
F
  0
LAYER
  5
7F
330
2
100
AcDbSymbolTableRecord
100
AcDbLayerTableRecord
  2
Layer15
 70
     0
 62
     7
  6
Continuous
370
    -3
390
F
  0
LAYER
  5
80
330
2
100
AcDbSymbolTableRecord
100
AcDbLayerTableRecord
  2
Layer16
 70
     0
 62
     7
  6
Continuous
370
    -3
390
F
  0
LAYER
  5
81
330
2
100
AcDbSymbolTableRecord
100
AcDbLayerTableRecord
  2
Layer17
 70
     0
 62
     7
  6
Continuous
370
    -3
390
F
  0
LAYER
  5
82
330
2
100
AcDbSymbolTableRecord
100
AcDbLayerTableRecord
  2
Layer18
 70
     0
 62
     7
  6
Continuous
370
    -3
390
F
  0
LAYER
  5
83
330
2
100
AcDbSymbolTableRecord
100
AcDbLayerTableRecord
  2
Layer19
 70
     0
 62
     7
  6
Continuous
370
    -3
390
F
  0
LAYER
  5
84
330
2
100
AcDbSymbolTableRecord
100
AcDbLayerTableRecord
  2
Layer20
 70
     0
 62
     7
  6
Continuous
370
    -3
390
F
  0
LAYER
  5
85
330
2
100
AcDbSymbolTableRecord
100
AcDbLayerTableRecord
  2
Layer21
 70
     0
 62
     7
  6
Continuous
370
    -3
390
F
  0
LAYER
  5
86
330
2
100
AcDbSymbolTableRecord
100
AcDbLayerTableRecord
  2
Layer22
 70
     0
 62
     7
  6
Continuous
370
    -3
390
F
  0
LAYER
  5
87
330
2
100
AcDbSymbolTableRecord
100
AcDbLayerTableRecord
  2
Layer23
 70
     0
 62
     7
  6
Continuous
370
    -3
390
F
  0
LAYER
  5
88
330
2
100
AcDbSymbolTableRecord
100
AcDbLayerTableRecord
  2
Layer24
 70
     0
 62
     7
  6
Continuous
370
    -3
390
F
  0
LAYER
  5
89
330
2
100
AcDbSymbolTableRecord
100
AcDbLayerTableRecord
  2
Layer25
 70
     0
 62
     7
  6
Continuous
370
    -3
390
F
  0
LAYER
  5
8A
330
2
100
AcDbSymbolTableRecord
100
AcDbLayerTableRecord
  2
Layer26
 70
     0
 62
     7
  6
Continuous
370
    -3
390
F
  0
LAYER
  5
8B
330
2
100
AcDbSymbolTableRecord
100
AcDbLayerTableRecord
  2
Layer27
 70
     0
 62
     7
  6
Continuous
370
    -3
390
F
  0
LAYER
  5
8C
330
2
100
AcDbSymbolTableRecord
100
AcDbLayerTableRecord
  2
Layer28
 70
     0
 62
     7
  6
Continuous
370
    -3
390
F
  0
LAYER
  5
8D
330
2
100
AcDbSymbolTableRecord
100
AcDbLayerTableRecord
  2
Layer29
 70
     0
 62
     7
  6
Continuous
370
    -3
390
F
  0
LAYER
  5
8E
330
2
100
AcDbSymbolTableRecord
100
AcDbLayerTableRecord
  2
Layer30
 70
     0
 62
     7
  6
Continuous
370
    -3
390
F
  0
LAYER
  5
8F
330
2
100
AcDbSymbolTableRecord
100
AcDbLayerTableRecord
  2
Layer31
 70
     0
 62
     7
  6
Continuous
370
    -3
390
F
  0
LAYER
  5
90
330
2
100
AcDbSymbolTableRecord
100
AcDbLayerTableRecord
  2
Layer32
 70
     0
 62
     7
  6
Continuous
370
    -3
390
F
  0
LAYER
  5
91
330
2
100
AcDbSymbolTableRecord
100
AcDbLayerTableRecord
  2
Layer33
 70
     0
 62
     7
  6
Continuous
370
    -3
390
F
  0
LAYER
  5
92
330
2
100
AcDbSymbolTableRecord
100
AcDbLayerTableRecord
  2
Layer34
 70
     0
 62
     7
  6
Continuous
370
    -3
390
F
  0
LAYER
  5
93
330
2
100
AcDbSymbolTableRecord
100
AcDbLayerTableRecord
  2
Layer35
 70
     0
 62
     7
  6
Continuous
370
    -3
390
F
  0
LAYER
  5
94
330
2
100
AcDbSymbolTableRecord
100
AcDbLayerTableRecord
  2
Layer36
 70
     0
 62
     7
  6
Continuous
370
    -3
390
F
  0
LAYER
  5
95
330
2
100
AcDbSymbolTableRecord
100
AcDbLayerTableRecord
  2
Layer37
 70
     0
 62
     7
  6
Continuous
370
    -3
390
F
  0
LAYER
  5
96
330
2
100
AcDbSymbolTableRecord
100
AcDbLayerTableRecord
  2
Layer38
 70
     0
 62
     7
  6
Continuous
370
    -3
390
F
  0
LAYER
  5
97
330
2
100
AcDbSymbolTableRecord
100
AcDbLayerTableRecord
  2
Layer39
 70
     0
 62
     7
  6
Continuous
370
    -3
390
F
  0
LAYER
  5
98
330
2
100
AcDbSymbolTableRecord
100
AcDbLayerTableRecord
  2
Layer40
 70
     0
 62
     7
  6
Continuous
370
    -3
390
F
  0
LAYER
  5
99
330
2
100
AcDbSymbolTableRecord
100
AcDbLayerTableRecord
  2
Layer41
 70
     0
 62
     7
  6
Continuous
370
    -3
390
F
  0
LAYER
  5
9A
330
2
100
AcDbSymbolTableRecord
100
AcDbLayerTableRecord
  2
Layer42
 70
     0
 62
     7
  6
Continuous
370
    -3
390
F
  0
LAYER
  5
9B
330
2
100
AcDbSymbolTableRecord
100
AcDbLayerTableRecord
  2
Layer43
 70
     0
 62
     7
  6
Continuous
370
    -3
390
F
  0
LAYER
  5
9C
330
2
100
AcDbSymbolTableRecord
100
AcDbLayerTableRecord
  2
Layer44
 70
     0
 62
     7
  6
Continuous
370
    -3
390
F
  0
LAYER
  5
9D
330
2
100
AcDbSymbolTableRecord
100
AcDbLayerTableRecord
  2
Layer45
 70
     0
 62
     7
  6
Continuous
370
    -3
390
F
  0
LAYER
  5
9E
330
2
100
AcDbSymbolTableRecord
100
AcDbLayerTableRecord
  2
Layer46
 70
     0
 62
     7
  6
Continuous
370
    -3
390
F
  0
LAYER
  5
9F
330
2
100
AcDbSymbolTableRecord
100
AcDbLayerTableRecord
  2
Layer47
 70
     0
 62
     7
  6
Continuous
370
    -3
390
F
  0
LAYER
  5
A0
330
2
100
AcDbSymbolTableRecord
100
AcDbLayerTableRecord
  2
Layer48
 70
     0
 62
     7
  6
Continuous
370
    -3
390
F
  0
LAYER
  5
A1
330
2
100
AcDbSymbolTableRecord
100
AcDbLayerTableRecord
  2
Layer49
 70
     0
 62
     7
  6
Continuous
370
    -3
390
F
  0
LAYER
  5
A2
330
2
100
AcDbSymbolTableRecord
100
AcDbLayerTableRecord
  2
Layer50
 70
     0
 62
     7
  6
Continuous
370
    -3
390
F
  0
LAYER
  5
A3
330
2
100
AcDbSymbolTableRecord
100
AcDbLayerTableRecord
  2
Layer51
 70
     0
 62
     7
  6
Continuous
370
    -3
390
F
  0
LAYER
  5
A4
330
2
100
AcDbSymbolTableRecord
100
AcDbLayerTableRecord
  2
Layer52
 70
     0
 62
     7
  6
Continuous
370
    -3
390
F
  0
LAYER
  5
A5
330
2
100
AcDbSymbolTableRecord
100
AcDbLayerTableRecord
  2
Layer53
 70
     0
 62
     7
  6
Continuous
370
    -3
390
F
  0
LAYER
  5
A6
330
2
100
AcDbSymbolTableRecord
100
AcDbLayerTableRecord
  2
Layer54
 70
     0
 62
     7
  6
Continuous
370
    -3
390
F
  0
LAYER
  5
A7
330
2
100
AcDbSymbolTableRecord
100
AcDbLayerTableRecord
  2
Layer55
 70
     0
 62
     7
  6
Continuous
370
    -3
390
F
  0
LAYER
  5
A8
330
2
100
AcDbSymbolTableRecord
100
AcDbLayerTableRecord
  2
Layer56
 70
     0
 62
     7
  6
Continuous
370
    -3
390
F
  0
LAYER
  5
A9
330
2
100
AcDbSymbolTableRecord
100
AcDbLayerTableRecord
  2
Layer57
 70
     0
 62
     7
  6
Continuous
370
    -3
390
F
  0
LAYER
  5
AA
330
2
100
AcDbSymbolTableRecord
100
AcDbLayerTableRecord
  2
Layer58
 70
     0
 62
     7
  6
Continuous
370
    -3
390
F
  0
LAYER
  5
AB
330
2
100
AcDbSymbolTableRecord
100
AcDbLayerTableRecord
  2
Layer59
 70
     0
 62
     7
  6
Continuous
370
    -3
390
F
  0
LAYER
  5
AC
330
2
100
AcDbSymbolTableRecord
100
AcDbLayerTableRecord
  2
Layer60
 70
     0
 62
     7
  6
Continuous
370
    -3
390
F
  0
LAYER
  5
AD
330
2
100
AcDbSymbolTableRecord
100
AcDbLayerTableRecord
  2
Layer61
 70
     0
 62
     7
  6
Continuous
370
    -3
390
F
  0
LAYER
  5
AE
330
2
100
AcDbSymbolTableRecord
100
AcDbLayerTableRecord
  2
Layer62
 70
     0
 62
     7
  6
Continuous
370
    -3
390
F
  0
LAYER
  5
AF
330
2
100
AcDbSymbolTableRecord
100
AcDbLayerTableRecord
  2
Layer63
 70
     0
 62
     7
  6
Continuous
370
    -3
390
F
  0
LAYER
  5
B0
330
2
100
AcDbSymbolTableRecord
100
AcDbLayerTableRecord
  2
Layer64
 70
     0
 62
     7
  6
Continuous
370
    -3
390
F
  0
LAYER
  5
B1
330
2
100
AcDbSymbolTableRecord
100
AcDbLayerTableRecord
  2
Layer65
 70
     0
 62
     7
  6
Continuous
370
    -3
390
F
  0
LAYER
  5
B2
330
2
100
AcDbSymbolTableRecord
100
AcDbLayerTableRecord
  2
Layer66
 70
     0
 62
     7
  6
Continuous
370
    -3
390
F
  0
LAYER
  5
B3
330
2
100
AcDbSymbolTableRecord
100
AcDbLayerTableRecord
  2
Layer67
 70
     0
 62
     7
  6
Continuous
370
    -3
390
F
  0
LAYER
  5
B4
330
2
100
AcDbSymbolTableRecord
100
AcDbLayerTableRecord
  2
Layer68
 70
     0
 62
     7
  6
Continuous
370
    -3
390
F
  0
LAYER
  5
B5
330
2
100
AcDbSymbolTableRecord
100
AcDbLayerTableRecord
  2
Layer69
 70
     0
 62
     7
  6
Continuous
370
    -3
390
F
  0
LAYER
  5
B6
330
2
100
AcDbSymbolTableRecord
100
AcDbLayerTableRecord
  2
Layer70
 70
     0
 62
     7
  6
Continuous
370
    -3
390
F
  0
LAYER
  5
B7
330
2
100
AcDbSymbolTableRecord
100
AcDbLayerTableRecord
  2
Layer71
 70
     0
 62
     7
  6
Continuous
370
    -3
390
F
  0
LAYER
  5
B8
330
2
100
AcDbSymbolTableRecord
100
AcDbLayerTableRecord
  2
Layer72
 70
     0
 62
     7
  6
Continuous
370
    -3
390
F
  0
LAYER
  5
B9
330
2
100
AcDbSymbolTableRecord
100
AcDbLayerTableRecord
  2
Layer73
 70
     0
 62
     7
  6
Continuous
370
    -3
390
F
  0
LAYER
  5
BA
330
2
100
AcDbSymbolTableRecord
100
AcDbLayerTableRecord
  2
Layer74
 70
     0
 62
     7
  6
Continuous
370
    -3
390
F
  0
LAYER
  5
BB
330
2
100
AcDbSymbolTableRecord
100
AcDbLayerTableRecord
  2
Layer75
 70
     0
 62
     7
  6
Continuous
370
    -3
390
F
  0
LAYER
  5
BC
330
2
100
AcDbSymbolTableRecord
100
AcDbLayerTableRecord
  2
Layer76
 70
     0
 62
     7
  6
Continuous
370
    -3
390
F
  0
LAYER
  5
BD
330
2
100
AcDbSymbolTableRecord
100
AcDbLayerTableRecord
  2
Layer77
 70
     0
 62
     7
  6
Continuous
370
    -3
390
F
  0
LAYER
  5
BE
330
2
100
AcDbSymbolTableRecord
100
AcDbLayerTableRecord
  2
Layer78
 70
     0
 62
     7
  6
Continuous
370
    -3
390
F
  0
LAYER
  5
BF
330
2
100
AcDbSymbolTableRecord
100
AcDbLayerTableRecord
  2
Layer79
 70
     0
 62
     7
  6
Continuous
370
    -3
390
F
  0
LAYER
  5
C0
330
2
100
AcDbSymbolTableRecord
100
AcDbLayerTableRecord
  2
Layer80
 70
     0
 62
     7
  6
Continuous
370
    -3
390
F
  0
LAYER
  5
C1
330
2
100
AcDbSymbolTableRecord
100
AcDbLayerTableRecord
  2
Layer81
 70
     0
 62
     7
  6
Continuous
370
    -3
390
F
  0
LAYER
  5
C2
330
2
100
AcDbSymbolTableRecord
100
AcDbLayerTableRecord
  2
Layer82
 70
     0
 62
     7
  6
Continuous
370
    -3
390
F
  0
LAYER
  5
C3
330
2
100
AcDbSymbolTableRecord
100
AcDbLayerTableRecord
  2
Layer83
 70
     0
 62
     7
  6
Continuous
370
    -3
390
F
  0
LAYER
  5
C4
330
2
100
AcDbSymbolTableRecord
100
AcDbLayerTableRecord
  2
Layer84
 70
     0
 62
     7
  6
Continuous
370
    -3
390
F
  0
LAYER
  5
C5
330
2
100
AcDbSymbolTableRecord
100
AcDbLayerTableRecord
  2
Layer85
 70
     0
 62
     7
  6
Continuous
370
    -3
390
F
  0
LAYER
  5
C6
330
2
100
AcDbSymbolTableRecord
100
AcDbLayerTableRecord
  2
Layer86
 70
     0
 62
     7
  6
Continuous
370
    -3
390
F
  0
LAYER
  5
C7
330
2
100
AcDbSymbolTableRecord
100
AcDbLayerTableRecord
  2
Layer87
 70
     0
 62
     7
  6
Continuous
370
    -3
390
F
  0
LAYER
  5
C8
330
2
100
AcDbSymbolTableRecord
100
AcDbLayerTableRecord
  2
Layer88
 70
     0
 62
     7
  6
Continuous
370
    -3
390
F
  0
LAYER
  5
C9
330
2
100
AcDbSymbolTableRecord
100
AcDbLayerTableRecord
  2
Layer89
 70
     0
 62
     7
  6
Continuous
370
    -3
390
F
  0
LAYER
  5
CA
330
2
100
AcDbSymbolTableRecord
100
AcDbLayerTableRecord
  2
Layer90
 70
     0
 62
     7
  6
Continuous
370
    -3
390
F
  0
LAYER
  5
CB
330
2
100
AcDbSymbolTableRecord
100
AcDbLayerTableRecord
  2
Layer91
 70
     0
 62
     7
  6
Continuous
370
    -3
390
F
  0
LAYER
  5
CC
330
2
100
AcDbSymbolTableRecord
100
AcDbLayerTableRecord
  2
Layer92
 70
     0
 62
     7
  6
Continuous
370
    -3
390
F
  0
LAYER
  5
CD
330
2
100
AcDbSymbolTableRecord
100
AcDbLayerTableRecord
  2
Layer93
 70
     0
 62
     7
  6
Continuous
370
    -3
390
F
  0
LAYER
  5
CE
330
2
100
AcDbSymbolTableRecord
100
AcDbLayerTableRecord
  2
Layer94
 70
     0
 62
     7
  6
Continuous
370
    -3
390
F
  0
LAYER
  5
CF
330
2
100
AcDbSymbolTableRecord
100
AcDbLayerTableRecord
  2
Layer95
 70
     0
 62
     7
  6
Continuous
370
    -3
390
F
  0
LAYER
  5
D0
330
2
100
AcDbSymbolTableRecord
100
AcDbLayerTableRecord
  2
Layer96
 70
     0
 62
     7
  6
Continuous
370
    -3
390
F
  0
LAYER
  5
D1
330
2
100
AcDbSymbolTableRecord
100
AcDbLayerTableRecord
  2
Layer97
 70
     0
 62
     7
  6
Continuous
370
    -3
390
F
  0
LAYER
  5
D2
330
2
100
AcDbSymbolTableRecord
100
AcDbLayerTableRecord
  2
Layer98
 70
     0
 62
     7
  6
Continuous
370
    -3
390
F
  0
LAYER
  5
D3
330
2
100
AcDbSymbolTableRecord
100
AcDbLayerTableRecord
  2
Layer99
 70
     0
 62
     7
  6
Continuous
370
    -3
390
F
  0
LAYER
  5
D4
330
2
100
AcDbSymbolTableRecord
100
AcDbLayerTableRecord
  2
Layer100
 70
     0
 62
     7
  6
Continuous
370
    -3
390
F
  0
LAYER
  5
D5
330
2
100
AcDbSymbolTableRecord
100
AcDbLayerTableRecord
  2
Layer101
 70
     0
 62
     7
  6
Continuous
370
    -3
390
F
  0
LAYER
  5
D6
330
2
100
AcDbSymbolTableRecord
100
AcDbLayerTableRecord
  2
Layer102
 70
     0
 62
     7
  6
Continuous
370
    -3
390
F
  0
LAYER
  5
D7
330
2
100
AcDbSymbolTableRecord
100
AcDbLayerTableRecord
  2
Layer103
 70
     0
 62
     7
  6
Continuous
370
    -3
390
F
  0
LAYER
  5
D8
330
2
100
AcDbSymbolTableRecord
100
AcDbLayerTableRecord
  2
Layer104
 70
     0
 62
     7
  6
Continuous
370
    -3
390
F
  0
LAYER
  5
D9
330
2
100
AcDbSymbolTableRecord
100
AcDbLayerTableRecord
  2
Layer105
 70
     0
 62
     7
  6
Continuous
370
    -3
390
F
  0
LAYER
  5
DA
330
2
100
AcDbSymbolTableRecord
100
AcDbLayerTableRecord
  2
Layer106
 70
     0
 62
     7
  6
Continuous
370
    -3
390
F
  0
LAYER
  5
DB
330
2
100
AcDbSymbolTableRecord
100
AcDbLayerTableRecord
  2
Layer107
 70
     0
 62
     7
  6
Continuous
370
    -3
390
F
  0
LAYER
  5
DC
330
2
100
AcDbSymbolTableRecord
100
AcDbLayerTableRecord
  2
Layer108
 70
     0
 62
     7
  6
Continuous
370
    -3
390
F
  0
LAYER
  5
DD
330
2
100
AcDbSymbolTableRecord
100
AcDbLayerTableRecord
  2
Layer109
 70
     0
 62
     7
  6
Continuous
370
    -3
390
F
  0
LAYER
  5
DE
330
2
100
AcDbSymbolTableRecord
100
AcDbLayerTableRecord
  2
Layer110
 70
     0
 62
     7
  6
Continuous
370
    -3
390
F
  0
LAYER
  5
DF
330
2
100
AcDbSymbolTableRecord
100
AcDbLayerTableRecord
  2
Layer111
 70
     0
 62
     7
  6
Continuous
370
    -3
390
F
  0
LAYER
  5
E0
330
2
100
AcDbSymbolTableRecord
100
AcDbLayerTableRecord
  2
Layer112
 70
     0
 62
     7
  6
Continuous
370
    -3
390
F
  0
LAYER
  5
E1
330
2
100
AcDbSymbolTableRecord
100
AcDbLayerTableRecord
  2
Layer113
 70
     0
 62
     7
  6
Continuous
370
    -3
390
F
  0
LAYER
  5
E2
330
2
100
AcDbSymbolTableRecord
100
AcDbLayerTableRecord
  2
Layer114
 70
     0
 62
     7
  6
Continuous
370
    -3
390
F
  0
LAYER
  5
E3
330
2
100
AcDbSymbolTableRecord
100
AcDbLayerTableRecord
  2
Layer115
 70
     0
 62
     7
  6
Continuous
370
    -3
390
F
  0
LAYER
  5
E4
330
2
100
AcDbSymbolTableRecord
100
AcDbLayerTableRecord
  2
Layer116
 70
     0
 62
     7
  6
Continuous
370
    -3
390
F
  0
LAYER
  5
E5
330
2
100
AcDbSymbolTableRecord
100
AcDbLayerTableRecord
  2
Layer117
 70
     0
 62
     7
  6
Continuous
370
    -3
390
F
  0
LAYER
  5
E6
330
2
100
AcDbSymbolTableRecord
100
AcDbLayerTableRecord
  2
Layer118
 70
     0
 62
     7
  6
Continuous
370
    -3
390
F
  0
LAYER
  5
E7
330
2
100
AcDbSymbolTableRecord
100
AcDbLayerTableRecord
  2
Layer119
 70
     0
 62
     7
  6
Continuous
370
    -3
390
F
  0
LAYER
  5
E8
330
2
100
AcDbSymbolTableRecord
100
AcDbLayerTableRecord
  2
Layer120
 70
     0
 62
     7
  6
Continuous
370
    -3
390
F
  0
LAYER
  5
E9
330
2
100
AcDbSymbolTableRecord
100
AcDbLayerTableRecord
  2
Layer121
 70
     0
 62
     7
  6
Continuous
370
    -3
390
F
  0
LAYER
  5
EA
330
2
100
AcDbSymbolTableRecord
100
AcDbLayerTableRecord
  2
Layer122
 70
     0
 62
     7
  6
Continuous
370
    -3
390
F
  0
LAYER
  5
EB
330
2
100
AcDbSymbolTableRecord
100
AcDbLayerTableRecord
  2
Layer123
 70
     0
 62
     7
  6
Continuous
370
    -3
390
F
  0
LAYER
  5
EC
330
2
100
AcDbSymbolTableRecord
100
AcDbLayerTableRecord
  2
Layer124
 70
     0
 62
     7
  6
Continuous
370
    -3
390
F
  0
LAYER
  5
ED
330
2
100
AcDbSymbolTableRecord
100
AcDbLayerTableRecord
  2
Layer125
 70
     0
 62
     7
  6
Continuous
370
    -3
390
F
  0
LAYER
  5
EE
330
2
100
AcDbSymbolTableRecord
100
AcDbLayerTableRecord
  2
Layer126
 70
     0
 62
     7
  6
Continuous
370
    -3
390
F
  0
LAYER
  5
EF
330
2
100
AcDbSymbolTableRecord
100
AcDbLayerTableRecord
  2
Layer127
 70
     0
 62
     7
  6
Continuous
370
    -3
390
F
  0
LAYER
  5
F0
330
2
100
AcDbSymbolTableRecord
100
AcDbLayerTableRecord
  2
Layer128
 70
     0
 62
     7
  6
Continuous
370
    -3
390
F
  0
LAYER
  5
F1
330
2
100
AcDbSymbolTableRecord
100
AcDbLayerTableRecord
  2
Layer129
 70
     0
 62
     7
  6
Continuous
370
    -3
390
F
  0
LAYER
  5
F2
330
2
100
AcDbSymbolTableRecord
100
AcDbLayerTableRecord
  2
Layer130
 70
     0
 62
     7
  6
Continuous
370
    -3
390
F
  0
LAYER
  5
F3
330
2
100
AcDbSymbolTableRecord
100
AcDbLayerTableRecord
  2
Layer131
 70
     0
 62
     7
  6
Continuous
370
    -3
390
F
  0
LAYER
  5
F4
330
2
100
AcDbSymbolTableRecord
100
AcDbLayerTableRecord
  2
Layer132
 70
     0
 62
     7
  6
Continuous
370
    -3
390
F
  0
LAYER
  5
F5
330
2
100
AcDbSymbolTableRecord
100
AcDbLayerTableRecord
  2
Layer133
 70
     0
 62
     7
  6
Continuous
370
    -3
390
F
  0
LAYER
  5
F6
330
2
100
AcDbSymbolTableRecord
100
AcDbLayerTableRecord
  2
Layer134
 70
     0
 62
     7
  6
Continuous
370
    -3
390
F
  0
LAYER
  5
F7
330
2
100
AcDbSymbolTableRecord
100
AcDbLayerTableRecord
  2
Layer135
 70
     0
 62
     7
  6
Continuous
370
    -3
390
F
  0
LAYER
  5
F8
330
2
100
AcDbSymbolTableRecord
100
AcDbLayerTableRecord
  2
Layer136
 70
     0
 62
     7
  6
Continuous
370
    -3
390
F
  0
LAYER
  5
F9
330
2
100
AcDbSymbolTableRecord
100
AcDbLayerTableRecord
  2
Layer137
 70
     0
 62
     7
  6
Continuous
370
    -3
390
F
  0
LAYER
  5
FA
330
2
100
AcDbSymbolTableRecord
100
AcDbLayerTableRecord
  2
Layer138
 70
     0
 62
     7
  6
Continuous
370
    -3
390
F
  0
LAYER
  5
FB
330
2
100
AcDbSymbolTableRecord
100
AcDbLayerTableRecord
  2
Layer139
 70
     0
 62
     7
  6
Continuous
370
    -3
390
F
  0
LAYER
  5
FC
330
2
100
AcDbSymbolTableRecord
100
AcDbLayerTableRecord
  2
Layer140
 70
     0
 62
     7
  6
Continuous
370
    -3
390
F
  0
LAYER
  5
FD
330
2
100
AcDbSymbolTableRecord
100
AcDbLayerTableRecord
  2
Layer141
 70
     0
 62
     7
  6
Continuous
370
    -3
390
F
  0
LAYER
  5
FE
330
2
100
AcDbSymbolTableRecord
100
AcDbLayerTableRecord
  2
Layer142
 70
     0
 62
     7
  6
Continuous
370
    -3
390
F
  0
LAYER
  5
FF
330
2
100
AcDbSymbolTableRecord
100
AcDbLayerTableRecord
  2
Layer143
 70
     0
 62
     7
  6
Continuous
370
    -3
390
F
  0
LAYER
  5
100
330
2
100
AcDbSymbolTableRecord
100
AcDbLayerTableRecord
  2
Layer144
 70
     0
 62
     7
  6
Continuous
370
    -3
390
F
  0
LAYER
  5
101
330
2
100
AcDbSymbolTableRecord
100
AcDbLayerTableRecord
  2
Layer145
 70
     0
 62
     7
  6
Continuous
370
    -3
390
F
  0
LAYER
  5
102
330
2
100
AcDbSymbolTableRecord
100
AcDbLayerTableRecord
  2
Layer146
 70
     0
 62
     7
  6
Continuous
370
    -3
390
F
  0
LAYER
  5
103
330
2
100
AcDbSymbolTableRecord
100
AcDbLayerTableRecord
  2
Layer147
 70
     0
 62
     7
  6
Continuous
370
    -3
390
F
  0
LAYER
  5
104
330
2
100
AcDbSymbolTableRecord
100
AcDbLayerTableRecord
  2
Layer148
 70
     0
 62
     7
  6
Continuous
370
    -3
390
F
  0
LAYER
  5
105
330
2
100
AcDbSymbolTableRecord
100
AcDbLayerTableRecord
  2
Layer149
 70
     0
 62
     7
  6
Continuous
370
    -3
390
F
  0
LAYER
  5
106
330
2
100
AcDbSymbolTableRecord
100
AcDbLayerTableRecord
  2
Layer150
 70
     0
 62
     7
  6
Continuous
370
    -3
390
F
  0
LAYER
  5
107
330
2
100
AcDbSymbolTableRecord
100
AcDbLayerTableRecord
  2
Layer151
 70
     0
 62
     7
  6
Continuous
370
    -3
390
F
  0
LAYER
  5
108
330
2
100
AcDbSymbolTableRecord
100
AcDbLayerTableRecord
  2
Layer152
 70
     0
 62
     7
  6
Continuous
370
    -3
390
F
  0
LAYER
  5
109
330
2
100
AcDbSymbolTableRecord
100
AcDbLayerTableRecord
  2
Layer153
 70
     0
 62
     7
  6
Continuous
370
    -3
390
F
  0
LAYER
  5
10A
330
2
100
AcDbSymbolTableRecord
100
AcDbLayerTableRecord
  2
Layer154
 70
     0
 62
     7
  6
Continuous
370
    -3
390
F
  0
LAYER
  5
10B
330
2
100
AcDbSymbolTableRecord
100
AcDbLayerTableRecord
  2
Layer155
 70
     0
 62
     7
  6
Continuous
370
    -3
390
F
  0
LAYER
  5
10C
330
2
100
AcDbSymbolTableRecord
100
AcDbLayerTableRecord
  2
Layer156
 70
     0
 62
     7
  6
Continuous
370
    -3
390
F
  0
LAYER
  5
10D
330
2
100
AcDbSymbolTableRecord
100
AcDbLayerTableRecord
  2
Layer157
 70
     0
 62
     7
  6
Continuous
370
    -3
390
F
  0
LAYER
  5
10E
330
2
100
AcDbSymbolTableRecord
100
AcDbLayerTableRecord
  2
Layer158
 70
     0
 62
     7
  6
Continuous
370
    -3
390
F
  0
LAYER
  5
10F
330
2
100
AcDbSymbolTableRecord
100
AcDbLayerTableRecord
  2
Layer159
 70
     0
 62
     7
  6
Continuous
370
    -3
390
F
  0
LAYER
  5
110
330
2
100
AcDbSymbolTableRecord
100
AcDbLayerTableRecord
  2
Layer160
 70
     0
 62
     7
  6
Continuous
370
    -3
390
F
  0
LAYER
  5
111
330
2
100
AcDbSymbolTableRecord
100
AcDbLayerTableRecord
  2
Layer161
 70
     0
 62
     7
  6
Continuous
370
    -3
390
F
  0
LAYER
  5
112
330
2
100
AcDbSymbolTableRecord
100
AcDbLayerTableRecord
  2
Layer162
 70
     0
 62
     7
  6
Continuous
370
    -3
390
F
  0
LAYER
  5
113
330
2
100
AcDbSymbolTableRecord
100
AcDbLayerTableRecord
  2
Layer163
 70
     0
 62
     7
  6
Continuous
370
    -3
390
F
  0
LAYER
  5
114
330
2
100
AcDbSymbolTableRecord
100
AcDbLayerTableRecord
  2
Layer164
 70
     0
 62
     7
  6
Continuous
370
    -3
390
F
  0
LAYER
  5
115
330
2
100
AcDbSymbolTableRecord
100
AcDbLayerTableRecord
  2
Layer165
 70
     0
 62
     7
  6
Continuous
370
    -3
390
F
  0
LAYER
  5
116
330
2
100
AcDbSymbolTableRecord
100
AcDbLayerTableRecord
  2
Layer166
 70
     0
 62
     7
  6
Continuous
370
    -3
390
F
  0
LAYER
  5
117
330
2
100
AcDbSymbolTableRecord
100
AcDbLayerTableRecord
  2
Layer167
 70
     0
 62
     7
  6
Continuous
370
    -3
390
F
  0
LAYER
  5
118
330
2
100
AcDbSymbolTableRecord
100
AcDbLayerTableRecord
  2
Layer168
 70
     0
 62
     7
  6
Continuous
370
    -3
390
F
  0
LAYER
  5
119
330
2
100
AcDbSymbolTableRecord
100
AcDbLayerTableRecord
  2
Layer169
 70
     0
 62
     7
  6
Continuous
370
    -3
390
F
  0
LAYER
  5
11A
330
2
100
AcDbSymbolTableRecord
100
AcDbLayerTableRecord
  2
Layer170
 70
     0
 62
     7
  6
Continuous
370
    -3
390
F
  0
LAYER
  5
11B
330
2
100
AcDbSymbolTableRecord
100
AcDbLayerTableRecord
  2
Layer171
 70
     0
 62
     7
  6
Continuous
370
    -3
390
F
  0
LAYER
  5
11C
330
2
100
AcDbSymbolTableRecord
100
AcDbLayerTableRecord
  2
Layer172
 70
     0
 62
     7
  6
Continuous
370
    -3
390
F
  0
LAYER
  5
11D
330
2
100
AcDbSymbolTableRecord
100
AcDbLayerTableRecord
  2
Layer173
 70
     0
 62
     7
  6
Continuous
370
    -3
390
F
  0
LAYER
  5
11E
330
2
100
AcDbSymbolTableRecord
100
AcDbLayerTableRecord
  2
Layer174
 70
     0
 62
     7
  6
Continuous
370
    -3
390
F
  0
LAYER
  5
11F
330
2
100
AcDbSymbolTableRecord
100
AcDbLayerTableRecord
  2
Layer175
 70
     0
 62
     7
  6
Continuous
370
    -3
390
F
  0
LAYER
  5
120
330
2
100
AcDbSymbolTableRecord
100
AcDbLayerTableRecord
  2
Layer176
 70
     0
 62
     7
  6
Continuous
370
    -3
390
F
  0
LAYER
  5
121
330
2
100
AcDbSymbolTableRecord
100
AcDbLayerTableRecord
  2
Layer177
 70
     0
 62
     7
  6
Continuous
370
    -3
390
F
  0
LAYER
  5
122
330
2
100
AcDbSymbolTableRecord
100
AcDbLayerTableRecord
  2
Layer178
 70
     0
 62
     7
  6
Continuous
370
    -3
390
F
  0
LAYER
  5
123
330
2
100
AcDbSymbolTableRecord
100
AcDbLayerTableRecord
  2
Layer179
 70
     0
 62
     7
  6
Continuous
370
    -3
390
F
  0
LAYER
  5
124
330
2
100
AcDbSymbolTableRecord
100
AcDbLayerTableRecord
  2
Layer180
 70
     0
 62
     7
  6
Continuous
370
    -3
390
F
  0
LAYER
  5
125
330
2
100
AcDbSymbolTableRecord
100
AcDbLayerTableRecord
  2
Layer181
 70
     0
 62
     7
  6
Continuous
370
    -3
390
F
  0
LAYER
  5
126
330
2
100
AcDbSymbolTableRecord
100
AcDbLayerTableRecord
  2
Layer182
 70
     0
 62
     7
  6
Continuous
370
    -3
390
F
  0
LAYER
  5
127
330
2
100
AcDbSymbolTableRecord
100
AcDbLayerTableRecord
  2
Layer183
 70
     0
 62
     7
  6
Continuous
370
    -3
390
F
  0
LAYER
  5
128
330
2
100
AcDbSymbolTableRecord
100
AcDbLayerTableRecord
  2
Layer184
 70
     0
 62
     7
  6
Continuous
370
    -3
390
F
  0
LAYER
  5
129
330
2
100
AcDbSymbolTableRecord
100
AcDbLayerTableRecord
  2
Layer185
 70
     0
 62
     7
  6
Continuous
370
    -3
390
F
  0
LAYER
  5
12A
330
2
100
AcDbSymbolTableRecord
100
AcDbLayerTableRecord
  2
Layer186
 70
     0
 62
     7
  6
Continuous
370
    -3
390
F
  0
LAYER
  5
12B
330
2
100
AcDbSymbolTableRecord
100
AcDbLayerTableRecord
  2
Layer187
 70
     0
 62
     7
  6
Continuous
370
    -3
390
F
  0
LAYER
  5
12C
330
2
100
AcDbSymbolTableRecord
100
AcDbLayerTableRecord
  2
Layer188
 70
     0
 62
     7
  6
Continuous
370
    -3
390
F
  0
LAYER
  5
12D
330
2
100
AcDbSymbolTableRecord
100
AcDbLayerTableRecord
  2
Layer189
 70
     0
 62
     7
  6
Continuous
370
    -3
390
F
  0
LAYER
  5
12E
330
2
100
AcDbSymbolTableRecord
100
AcDbLayerTableRecord
  2
Layer190
 70
     0
 62
     7
  6
Continuous
370
    -3
390
F
  0
LAYER
  5
12F
330
2
100
AcDbSymbolTableRecord
100
AcDbLayerTableRecord
  2
Layer191
 70
     0
 62
     7
  6
Continuous
370
    -3
390
F
  0
LAYER
  5
130
330
2
100
AcDbSymbolTableRecord
100
AcDbLayerTableRecord
  2
Layer192
 70
     0
 62
     7
  6
Continuous
370
    -3
390
F
  0
LAYER
  5
131
330
2
100
AcDbSymbolTableRecord
100
AcDbLayerTableRecord
  2
Layer193
 70
     0
 62
     7
  6
Continuous
370
    -3
390
F
  0
LAYER
  5
132
330
2
100
AcDbSymbolTableRecord
100
AcDbLayerTableRecord
  2
Layer194
 70
     0
 62
     7
  6
Continuous
370
    -3
390
F
  0
LAYER
  5
133
330
2
100
AcDbSymbolTableRecord
100
AcDbLayerTableRecord
  2
Layer195
 70
     0
 62
     7
  6
Continuous
370
    -3
390
F
  0
LAYER
  5
134
330
2
100
AcDbSymbolTableRecord
100
AcDbLayerTableRecord
  2
Layer196
 70
     0
 62
     7
  6
Continuous
370
    -3
390
F
  0
LAYER
  5
135
330
2
100
AcDbSymbolTableRecord
100
AcDbLayerTableRecord
  2
Layer197
 70
     0
 62
     7
  6
Continuous
370
    -3
390
F
  0
LAYER
  5
136
330
2
100
AcDbSymbolTableRecord
100
AcDbLayerTableRecord
  2
Layer198
 70
     0
 62
     7
  6
Continuous
370
    -3
390
F
  0
LAYER
  5
137
330
2
100
AcDbSymbolTableRecord
100
AcDbLayerTableRecord
  2
Layer199
 70
     0
 62
     7
  6
Continuous
370
    -3
390
F
  0
LAYER
  5
138
330
2
100
AcDbSymbolTableRecord
100
AcDbLayerTableRecord
  2
Layer200
 70
     0
 62
     7
  6
Continuous
370
    -3
390
F
  0
LAYER
  5
139
330
2
100
AcDbSymbolTableRecord
100
AcDbLayerTableRecord
  2
Layer201
 70
     0
 62
     7
  6
Continuous
370
    -3
390
F
  0
LAYER
  5
13A
330
2
100
AcDbSymbolTableRecord
100
AcDbLayerTableRecord
  2
Layer202
 70
     0
 62
     7
  6
Continuous
370
    -3
390
F
  0
LAYER
  5
13B
330
2
100
AcDbSymbolTableRecord
100
AcDbLayerTableRecord
  2
Layer203
 70
     0
 62
     7
  6
Continuous
370
    -3
390
F
  0
LAYER
  5
13C
330
2
100
AcDbSymbolTableRecord
100
AcDbLayerTableRecord
  2
Layer204
 70
     0
 62
     7
  6
Continuous
370
    -3
390
F
  0
LAYER
  5
13D
330
2
100
AcDbSymbolTableRecord
100
AcDbLayerTableRecord
  2
Layer205
 70
     0
 62
     7
  6
Continuous
370
    -3
390
F
  0
LAYER
  5
13E
330
2
100
AcDbSymbolTableRecord
100
AcDbLayerTableRecord
  2
Layer206
 70
     0
 62
     7
  6
Continuous
370
    -3
390
F
  0
LAYER
  5
13F
330
2
100
AcDbSymbolTableRecord
100
AcDbLayerTableRecord
  2
Layer207
 70
     0
 62
     7
  6
Continuous
370
    -3
390
F
  0
LAYER
  5
140
330
2
100
AcDbSymbolTableRecord
100
AcDbLayerTableRecord
  2
Layer208
 70
     0
 62
     7
  6
Continuous
370
    -3
390
F
  0
LAYER
  5
141
330
2
100
AcDbSymbolTableRecord
100
AcDbLayerTableRecord
  2
Layer209
 70
     0
 62
     7
  6
Continuous
370
    -3
390
F
  0
LAYER
  5
142
330
2
100
AcDbSymbolTableRecord
100
AcDbLayerTableRecord
  2
Layer210
 70
     0
 62
     7
  6
Continuous
370
    -3
390
F
  0
LAYER
  5
143
330
2
100
AcDbSymbolTableRecord
100
AcDbLayerTableRecord
  2
Layer211
 70
     0
 62
     7
  6
Continuous
370
    -3
390
F
  0
LAYER
  5
144
330
2
100
AcDbSymbolTableRecord
100
AcDbLayerTableRecord
  2
Layer212
 70
     0
 62
     7
  6
Continuous
370
    -3
390
F
  0
LAYER
  5
145
330
2
100
AcDbSymbolTableRecord
100
AcDbLayerTableRecord
  2
Layer213
 70
     0
 62
     7
  6
Continuous
370
    -3
390
F
  0
LAYER
  5
146
330
2
100
AcDbSymbolTableRecord
100
AcDbLayerTableRecord
  2
Layer214
 70
     0
 62
     7
  6
Continuous
370
    -3
390
F
  0
LAYER
  5
147
330
2
100
AcDbSymbolTableRecord
100
AcDbLayerTableRecord
  2
Layer215
 70
     0
 62
     7
  6
Continuous
370
    -3
390
F
  0
LAYER
  5
148
330
2
100
AcDbSymbolTableRecord
100
AcDbLayerTableRecord
  2
Layer216
 70
     0
 62
     7
  6
Continuous
370
    -3
390
F
  0
LAYER
  5
149
330
2
100
AcDbSymbolTableRecord
100
AcDbLayerTableRecord
  2
Layer217
 70
     0
 62
     7
  6
Continuous
370
    -3
390
F
  0
LAYER
  5
14A
330
2
100
AcDbSymbolTableRecord
100
AcDbLayerTableRecord
  2
Layer218
 70
     0
 62
     7
  6
Continuous
370
    -3
390
F
  0
LAYER
  5
14B
330
2
100
AcDbSymbolTableRecord
100
AcDbLayerTableRecord
  2
Layer219
 70
     0
 62
     7
  6
Continuous
370
    -3
390
F
  0
LAYER
  5
14C
330
2
100
AcDbSymbolTableRecord
100
AcDbLayerTableRecord
  2
Layer220
 70
     0
 62
     7
  6
Continuous
370
    -3
390
F
  0
LAYER
  5
14D
330
2
100
AcDbSymbolTableRecord
100
AcDbLayerTableRecord
  2
Layer221
 70
     0
 62
     7
  6
Continuous
370
    -3
390
F
  0
LAYER
  5
14E
330
2
100
AcDbSymbolTableRecord
100
AcDbLayerTableRecord
  2
Layer222
 70
     0
 62
     7
  6
Continuous
370
    -3
390
F
  0
LAYER
  5
14F
330
2
100
AcDbSymbolTableRecord
100
AcDbLayerTableRecord
  2
Layer223
 70
     0
 62
     7
  6
Continuous
370
    -3
390
F
  0
LAYER
  5
150
330
2
100
AcDbSymbolTableRecord
100
AcDbLayerTableRecord
  2
Layer224
 70
     0
 62
     7
  6
Continuous
370
    -3
390
F
  0
LAYER
  5
151
330
2
100
AcDbSymbolTableRecord
100
AcDbLayerTableRecord
  2
Layer225
 70
     0
 62
     7
  6
Continuous
370
    -3
390
F
  0
LAYER
  5
152
330
2
100
AcDbSymbolTableRecord
100
AcDbLayerTableRecord
  2
Layer226
 70
     0
 62
     7
  6
Continuous
370
    -3
390
F
  0
LAYER
  5
153
330
2
100
AcDbSymbolTableRecord
100
AcDbLayerTableRecord
  2
Layer227
 70
     0
 62
     7
  6
Continuous
370
    -3
390
F
  0
LAYER
  5
154
330
2
100
AcDbSymbolTableRecord
100
AcDbLayerTableRecord
  2
Layer228
 70
     0
 62
     7
  6
Continuous
370
    -3
390
F
  0
LAYER
  5
155
330
2
100
AcDbSymbolTableRecord
100
AcDbLayerTableRecord
  2
Layer229
 70
     0
 62
     7
  6
Continuous
370
    -3
390
F
  0
LAYER
  5
156
330
2
100
AcDbSymbolTableRecord
100
AcDbLayerTableRecord
  2
Layer230
 70
     0
 62
     7
  6
Continuous
370
    -3
390
F
  0
LAYER
  5
157
330
2
100
AcDbSymbolTableRecord
100
AcDbLayerTableRecord
  2
Layer231
 70
     0
 62
     7
  6
Continuous
370
    -3
390
F
  0
LAYER
  5
158
330
2
100
AcDbSymbolTableRecord
100
AcDbLayerTableRecord
  2
Layer232
 70
     0
 62
     7
  6
Continuous
370
    -3
390
F
  0
LAYER
  5
159
330
2
100
AcDbSymbolTableRecord
100
AcDbLayerTableRecord
  2
Layer233
 70
     0
 62
     7
  6
Continuous
370
    -3
390
F
  0
LAYER
  5
15A
330
2
100
AcDbSymbolTableRecord
100
AcDbLayerTableRecord
  2
Layer234
 70
     0
 62
     7
  6
Continuous
370
    -3
390
F
  0
LAYER
  5
15B
330
2
100
AcDbSymbolTableRecord
100
AcDbLayerTableRecord
  2
Layer235
 70
     0
 62
     7
  6
Continuous
370
    -3
390
F
  0
LAYER
  5
15C
330
2
100
AcDbSymbolTableRecord
100
AcDbLayerTableRecord
  2
Layer236
 70
     0
 62
     7
  6
Continuous
370
    -3
390
F
  0
LAYER
  5
15D
330
2
100
AcDbSymbolTableRecord
100
AcDbLayerTableRecord
  2
Layer237
 70
     0
 62
     7
  6
Continuous
370
    -3
390
F
  0
LAYER
  5
15E
330
2
100
AcDbSymbolTableRecord
100
AcDbLayerTableRecord
  2
Layer238
 70
     0
 62
     7
  6
Continuous
370
    -3
390
F
  0
LAYER
  5
15F
330
2
100
AcDbSymbolTableRecord
100
AcDbLayerTableRecord
  2
Layer239
 70
     0
 62
     7
  6
Continuous
370
    -3
390
F
  0
LAYER
  5
160
330
2
100
AcDbSymbolTableRecord
100
AcDbLayerTableRecord
  2
Layer240
 70
     0
 62
     7
  6
Continuous
370
    -3
390
F
  0
LAYER
  5
161
330
2
100
AcDbSymbolTableRecord
100
AcDbLayerTableRecord
  2
Layer241
 70
     0
 62
     7
  6
Continuous
370
    -3
390
F
  0
LAYER
  5
162
330
2
100
AcDbSymbolTableRecord
100
AcDbLayerTableRecord
  2
Layer242
 70
     0
 62
     7
  6
Continuous
370
    -3
390
F
  0
LAYER
  5
163
330
2
100
AcDbSymbolTableRecord
100
AcDbLayerTableRecord
  2
Layer243
 70
     0
 62
     7
  6
Continuous
370
    -3
390
F
  0
LAYER
  5
164
330
2
100
AcDbSymbolTableRecord
100
AcDbLayerTableRecord
  2
Layer244
 70
     0
 62
     7
  6
Continuous
370
    -3
390
F
  0
LAYER
  5
165
330
2
100
AcDbSymbolTableRecord
100
AcDbLayerTableRecord
  2
Layer245
 70
     0
 62
     7
  6
Continuous
370
    -3
390
F
  0
LAYER
  5
166
330
2
100
AcDbSymbolTableRecord
100
AcDbLayerTableRecord
  2
Layer246
 70
     0
 62
     7
  6
Continuous
370
    -3
390
F
  0
LAYER
  5
167
330
2
100
AcDbSymbolTableRecord
100
AcDbLayerTableRecord
  2
Layer247
 70
     0
 62
     7
  6
Continuous
370
    -3
390
F
  0
LAYER
  5
168
330
2
100
AcDbSymbolTableRecord
100
AcDbLayerTableRecord
  2
Layer248
 70
     0
 62
     7
  6
Continuous
370
    -3
390
F
  0
LAYER
  5
169
330
2
100
AcDbSymbolTableRecord
100
AcDbLayerTableRecord
  2
Layer249
 70
     0
 62
     7
  6
Continuous
370
    -3
390
F
  0
LAYER
  5
16A
330
2
100
AcDbSymbolTableRecord
100
AcDbLayerTableRecord
  2
Layer250
 70
     0
 62
     7
  6
Continuous
370
    -3
390
F
  0
LAYER
  5
16B
330
2
100
AcDbSymbolTableRecord
100
AcDbLayerTableRecord
  2
Layer251
 70
     0
 62
     7
  6
Continuous
370
    -3
390
F
  0
LAYER
  5
16C
330
2
100
AcDbSymbolTableRecord
100
AcDbLayerTableRecord
  2
Layer252
 70
     0
 62
     7
  6
Continuous
370
    -3
390
F
  0
LAYER
  5
16D
330
2
100
AcDbSymbolTableRecord
100
AcDbLayerTableRecord
  2
Layer253
 70
     0
 62
     7
  6
Continuous
370
    -3
390
F
  0
LAYER
  5
16E
330
2
100
AcDbSymbolTableRecord
100
AcDbLayerTableRecord
  2
Layer254
 70
     0
 62
     7
  6
Continuous
370
    -3
390
F
  0
LAYER
  5
16F
330
2
100
AcDbSymbolTableRecord
100
AcDbLayerTableRecord
  2
Layer255
 70
     0
 62
     7
  6
Continuous
370
    -3
390
F
  0
ENDTAB
  0
TABLE
  2
STYLE
  5
3
330
0
100
AcDbSymbolTable
 70
     5
  0
STYLE
  5
11
330
3
100
AcDbSymbolTableRecord
100
AcDbTextStyleTableRecord
  2
Standard
 70
     0
 40
0.0
 41
1.0
 50
0.0
 71
     0
 42
2.5
  3
txt
  4

  0
STYLE
  5
6C
330
3
100
AcDbSymbolTableRecord
100
AcDbTextStyleTableRecord
  2
Arial
 70
     0
 40
0.0
 41
1.0
 50
0.0
 71
     0
 42
2.5
  3
arial.ttf
  4

1001
ACAD
1000
Arial
1071
       34
  0
STYLE
  5
6D
330
3
100
AcDbSymbolTableRecord
100
AcDbTextStyleTableRecord
  2
Lucida Calligraphy
 70
     0
 40
0.0
 41
1.0
 50
0.0
 71
     0
 42
2.5
  3
arial.ttf
  4

1001
ACAD
1000
Arial
1071
       66
  0
STYLE
  5
6E
330
3
100
AcDbSymbolTableRecord
100
AcDbTextStyleTableRecord
  2
Brush Script MT
 70
     0
 40
0.0
 41
1.0
 50
0.0
 71
     0
 42
2.5
  3

  4

1001
ACAD
1000
Arial
1071
       66
  0
STYLE
  5
6F
330
3
100
AcDbSymbolTableRecord
100
AcDbTextStyleTableRecord
  2
Toleranzfont
 70
     0
 40
0.0
 41
1.0
 50
0.0
 71
     0
 42
2.5
  3
IGES1003.SHX
  4

  0
ENDTAB
  0
TABLE
  2
VIEW
  5
6
330
0
100
AcDbSymbolTable
 70
     0
  0
ENDTAB
  0
TABLE
  2
UCS
  5
7
330
0
100
AcDbSymbolTable
 70
     0
  0
ENDTAB
  0
TABLE
  2
APPID
  5
9
330
0
100
AcDbSymbolTable
 70
     1
  0
APPID
  5
12
330
9
100
AcDbSymbolTableRecord
100
AcDbRegAppTableRecord
  2
ACAD
 70
     0
  0
ENDTAB
  0
TABLE
  2
DIMSTYLE
  5
A
330
0
100
AcDbSymbolTable
 70
     1
100
AcDbDimStyleTable
  0
DIMSTYLE
105
27
330
A
100
AcDbSymbolTableRecord
100
AcDbDimStyleTableRecord
  2
ISO-25
 70
     0
 41
2.5
 42
0.625
 43
3.75
 44
1.25
 73
     0
 74
     0
 77
     1
 78
     8
140
2.5
141
2.5
143
0.03937007874
147
0.625
171
     3
172
     1
178
     0
271
     2
272
     2
274
     3
278
    44
283
     0
284
     8
340
11
  0
ENDTAB
  0
TABLE
  2
BLOCK_RECORD
  5
1
330
0
100
AcDbSymbolTable
 70
    14
  0
BLOCK_RECORD
  5
1F
330
1
100
AcDbSymbolTableRecord
100
AcDbBlockTableRecord
  2
*Model_Space
340
22
  0
BLOCK_RECORD
  5
1B
330
1
100
AcDbSymbolTableRecord
100
AcDbBlockTableRecord
  2
*Paper_Space
340
1E
  0
BLOCK_RECORD
  5
23
330
1
100
AcDbSymbolTableRecord
100
AcDbBlockTableRecord
  2
*Paper_Space0
340
26
  0
BLOCK_RECORD
  5
170
330
1
100
AcDbSymbolTableRecord
100
AcDbBlockTableRecord
  2
Inch
340
0
102
{BLKREFS
331
29F
102
}
  0
BLOCK_RECORD
  5
186
330
1
100
AcDbSymbolTableRecord
100
AcDbBlockTableRecord
  2
DimBlk_nNn01
340
0
102
{BLKREFS
331
191
102
}
  0
BLOCK_RECORD
  5
192
330
1
100
AcDbSymbolTableRecord
100
AcDbBlockTableRecord
  2
DimBlk_nNn02
340
0
102
{BLKREFS
331
19D
102
}
  0
BLOCK_RECORD
  5
1AE
330
1
100
AcDbSymbolTableRecord
100
AcDbBlockTableRecord
  2
DimBlk_nNn03
340
0
102
{BLKREFS
331
1B9
102
}
  0
BLOCK_RECORD
  5
1BB
330
1
100
AcDbSymbolTableRecord
100
AcDbBlockTableRecord
  2
DimBlk_nNn04
340
0
102
{BLKREFS
331
1C6
102
}
  0
BLOCK_RECORD
  5
1C7
330
1
100
AcDbSymbolTableRecord
100
AcDbBlockTableRecord
  2
DimBlk_nNn05
340
0
102
{BLKREFS
331
1D2
102
}
  0
BLOCK_RECORD
  5
1D4
330
1
100
AcDbSymbolTableRecord
100
AcDbBlockTableRecord
  2
DimBlk_nNn06
340
0
102
{BLKREFS
331
1DF
102
}
  0
BLOCK_RECORD
  5
1E0
330
1
100
AcDbSymbolTableRecord
100
AcDbBlockTableRecord
  2
DimBlk_nNn07
340
0
102
{BLKREFS
331
1EB
102
}
  0
BLOCK_RECORD
  5
1F2
330
1
100
AcDbSymbolTableRecord
100
AcDbBlockTableRecord
  2
DimBlk_nNn08
340
0
102
{BLKREFS
331
1FE
102
}
  0
BLOCK_RECORD
  5
1FF
330
1
100
AcDbSymbolTableRecord
100
AcDbBlockTableRecord
  2
DimBlk_nNn09
340
0
102
{BLKREFS
331
20B
102
}
  0
BLOCK_RECORD
  5
20C
330
1
100
AcDbSymbolTableRecord
100
AcDbBlockTableRecord
  2
DimBlk_nNn010
340
0
102
{BLKREFS
331
216
102
}
  0
BLOCK_RECORD
  5
217
330
1
100
AcDbSymbolTableRecord
100
AcDbBlockTableRecord
  2
DimBlk_nNn011
340
0
102
{BLKREFS
331
221
102
}
  0
BLOCK_RECORD
  5
225
330
1
100
AcDbSymbolTableRecord
100
AcDbBlockTableRecord
  2
DimBlk_nNn012
340
0
102
{BLKREFS
331
231
102
}
  0
ENDTAB
  0
ENDSEC
  0
SECTION
  2
BLOCKS
  0
BLOCK
  5
20
330
1F
100
AcDbEntity
  8
0
100
AcDbBlockBegin
  2
*Model_Space
 70
     0
 10
0.0
 20
0.0
 30
0.0
  3
*Model_Space
  1
*Model_Space
  0
ENDBLK
  5
21
330
1F
100
AcDbEntity
  8
0
100
AcDbBlockEnd
  0
BLOCK
  5
1C
330
1B
100
AcDbEntity
 67
     1
  8
0
100
AcDbBlockBegin
  2
*Paper_Space
 70
     0
 10
0.0
 20
0.0
 30
0.0
  3
*Paper_Space
  1
*Paper_Space
  0
ENDBLK
  5
1D
330
1B
100
AcDbEntity
 67
     1
  8
0
100
AcDbBlockEnd
  0
BLOCK
  5
24
330
23
100
AcDbEntity
  8
0
100
AcDbBlockBegin
  2
*Paper_Space0
 70
     0
 10
0.0
 20
0.0
 30
0.0
  3
*Paper_Space0
  1
*Paper_Space0
  0
ENDBLK
  5
25
330
23
100
AcDbEntity
  8
0
100
AcDbBlockEnd
  0
BLOCK
  5
171
330
170
100
AcDbEntity
  8
0
100
AcDbBlockBegin
  2
Inch
 70
     0
 10
0.0
 20
0.0
 30
0.0
  3
Inch
  1
Inch
  0
LINE
  5
173
330
170
100
AcDbEntity
  8
Layer2
  6
AUSGEZOGEN
 62
    16
420
  8388608
370
    18
100
AcDbLine
 10
401.168269094185
 20
152.034923478581
 30
0.0
 11
371.995604338294
 21
181.207588234472
 31
0.0
  0
LINE
  5
174
330
170
100
AcDbEntity
  8
Layer2
  6
AUSGEZOGEN
 62
    16
420
  8388608
370
    18
100
AcDbLine
 10
359.655932894374
 20
181.207588234472
 30
0.0
 11
359.655932894374
 21
193.602912411483
 31
0.0
  0
LINE
  5
175
330
170
100
AcDbEntity
  8
Layer2
  6
AUSGEZOGEN
 62
    16
420
  8388608
370
    18
100
AcDbLine
 10
359.655932894374
 20
181.207588234472
 30
0.0
 11
371.995604338294
 21
181.207588234472
 31
0.0
  0
LINE
  5
176
330
170
100
AcDbEntity
  8
Layer2
  6
AUSGEZOGEN
 62
    16
420
  8388608
370
    18
100
AcDbLine
 10
401.168269094185
 20
139.676569816165
 30
0.0
 11
401.168269094185
 21
152.034923478581
 31
0.0
  0
LINE
  5
177
330
170
100
AcDbEntity
  8
Layer2
  6
AUSGEZOGEN
 62
    16
420
  8388608
370
    18
100
AcDbLine
 10
401.168269094185
 20
139.676569816165
 30
0.0
 11
413.492663751886
 21
139.676569816165
 31
0.0
  0
LINE
  5
178
330
170
100
AcDbEntity
  8
Layer2
  6
AUSGEZOGEN
 62
    16
420
  8388608
370
    18
100
AcDbLine
 10
408.23933690605
 20
159.105991290446
 30
0.0
 11
379.066672150159
 21
188.278656046337
 31
0.0
  0
LINE
  5
179
330
170
100
AcDbEntity
  8
Layer2
  6
AUSGEZOGEN
 62
    16
420
  8388608
370
    18
100
AcDbLine
 10
366.727000706239
 20
188.278656046337
 30
0.0
 11
366.727000706239
 21
200.673980223348
 31
0.0
  0
LINE
  5
17A
330
170
100
AcDbEntity
  8
Layer2
  6
AUSGEZOGEN
 62
    16
420
  8388608
370
    18
100
AcDbLine
 10
366.727000706239
 20
188.278656046337
 30
0.0
 11
379.066672150159
 21
188.278656046337
 31
0.0
  0
LINE
  5
17B
330
170
100
AcDbEntity
  8
Layer2
  6
AUSGEZOGEN
 62
    16
420
  8388608
370
    18
100
AcDbLine
 10
408.23933690605
 20
146.747637628031
 30
0.0
 11
408.23933690605
 21
159.105991290446
 31
0.0
  0
LINE
  5
17C
330
170
100
AcDbEntity
  8
Layer2
  6
AUSGEZOGEN
 62
    16
420
  8388608
370
    18
100
AcDbLine
 10
408.23933690605
 20
146.747637628031
 30
0.0
 11
420.563731563751
 21
146.747637628031
 31
0.0
  0
LINE
  5
17D
330
170
100
AcDbEntity
  8
Layer2
  6
AUSGEZOGEN
 62
    16
420
  8388608
370
    18
100
AcDbLine
 10
366.727000706239
 20
200.673980223348
 30
0.0
 11
383.499548410461
 21
200.673980223348
 31
0.0
  0
LINE
  5
17E
330
170
100
AcDbEntity
  8
Layer2
  6
AUSGEZOGEN
 62
    16
420
  8388608
370
    18
100
AcDbLine
 10
420.563731563751
 20
163.609797070058
 30
0.0
 11
420.563731563751
 21
146.747637628031
 31
0.0
  0
LINE
  5
17F
330
170
100
AcDbEntity
  8
Layer2
  6
AUSGEZOGEN
 62
    16
420
  8388608
370
    18
100
AcDbLine
 10
420.563731563751
 20
163.609797070058
 30
0.0
 11
383.499548410461
 21
200.673980223348
 31
0.0
  0
LINE
  5
180
330
170
100
AcDbEntity
  8
Layer2
  6
AUSGEZOGEN
 62
    16
420
  8388608
370
    18
100
AcDbLine
 10
366.727000706239
 20
200.673980223348
 30
0.0
 11
359.655932894374
 21
193.602912411483
 31
0.0
  0
LINE
  5
181
330
170
100
AcDbEntity
  8
Layer2
  6
AUSGEZOGEN
 62
    16
420
  8388608
370
    18
100
AcDbLine
 10
366.727000706239
 20
188.278656046337
 30
0.0
 11
359.655932894374
 21
181.207588234472
 31
0.0
  0
LINE
  5
182
330
170
100
AcDbEntity
  8
Layer2
  6
AUSGEZOGEN
 62
    16
420
  8388608
370
    18
100
AcDbLine
 10
379.066672150159
 20
188.278656046337
 30
0.0
 11
371.995604338294
 21
181.207588234472
 31
0.0
  0
LINE
  5
183
330
170
100
AcDbEntity
  8
Layer2
  6
AUSGEZOGEN
 62
    16
420
  8388608
370
    18
100
AcDbLine
 10
408.23933690605
 20
159.105991290446
 30
0.0
 11
401.168269094185
 21
152.034923478581
 31
0.0
  0
LINE
  5
184
330
170
100
AcDbEntity
  8
Layer2
  6
AUSGEZOGEN
 62
    16
420
  8388608
370
    18
100
AcDbLine
 10
408.23933690605
 20
146.747637628031
 30
0.0
 11
401.168269094185
 21
139.676569816165
 31
0.0
  0
LINE
  5
185
330
170
100
AcDbEntity
  8
Layer2
  6
AUSGEZOGEN
 62
    16
420
  8388608
370
    18
100
AcDbLine
 10
420.563731563751
 20
146.747637628031
 30
0.0
 11
413.492663751886
 21
139.676569816165
 31
0.0
  0
INSERT
  5
191
330
170
100
AcDbEntity
  8
0
100
AcDbBlockReference
  2
DimBlk_nNn01
 10
0.0
 20
0.0
 30
0.0
  0
INSERT
  5
19D
330
170
100
AcDbEntity
  8
0
100
AcDbBlockReference
  2
DimBlk_nNn02
 10
0.0
 20
0.0
 30
0.0
  0
TEXT
  5
19E
330
170
100
AcDbEntity
  8
profile
  6
AUSGEZOGEN
 62
    16
420
  8388608
370
    18
100
AcDbText
 10
390.866145225971
 20
133.088702237458
 30
0.0
 40
3.5
  1
13/16" X 3"
 41
1.422419997114
  7
Arial
 72
     5
 11
425.551145645587
 21
133.088702237458
 31
0.0
100
AcDbText
  0
TEXT
  5
19F
330
170
100
AcDbEntity
  8
profile
  6
AUSGEZOGEN
 62
    16
420
  8388608
370
    18
100
AcDbText
 10
392.8339782478
 20
127.40677663315
 30
0.0
 40
3.5
  1
CR 3.000"
 41
1.387046325746
  7
Arial
 72
     5
 11
423.864978647389
 21
127.40677663315
 31
0.0
100
AcDbText
  0
HATCH
  5
1A0
330
170
100
AcDbEntity
  8
profile
  6
AUSGEZOGEN
 62
     4
420
    65535
370
    18
100
AcDbHatch
 10
0.0
 20
0.0
 30
0.0
210
0.0
220
0.0
230
1.0
  2
MegaCAD_ansi36
 70
     0
 71
     0
 91
        1
 92
        2
 72
     0
 73
     1
 93
        8
 10
408.2393369060503
 20
159.1059912904462
 10
408.2393369060503
 20
146.7476376280305
 10
420.5637315637513
 20
146.7476376280305
 10
420.5637315637513
 20
163.6097970700578
 10
383.499548410461
 20
200.6739802233482
 10
366.7270007062391
 20
200.6739802233482
 10
366.7270007062391
 20
188.2786560463375
 10
379.066672150159
 20
188.2786560463374
 97
        0
 75
     0
 76
     1
 52
0.0
 41
1.0
 77
     0
 78
     1
 53
45.0
 43
0.0
 44
0.0
 45
0.6629126073623884
 46
2.430679560328757
 79
     4
 49
3.125
 49
-0.625
 49
0.0
 49
-0.625
 98
        0
  0
LINE
  5
1A1
330
170
100
AcDbEntity
  8
profile
  6
AUSGEZOGEN
 62
     3
420
    65280
370
    18
100
AcDbLine
 10
271.463927959407
 20
22.185108696533
 30
0.0
 11
387.663847959407
 21
22.185108696533
 31
0.0
  0
LINE
  5
1A2
330
170
100
AcDbEntity
  8
profile
  6
AUSGEZOGEN
 62
     3
420
    65280
370
    18
100
AcDbLine
 10
387.663847959407
 20
22.185108696533
 30
0.0
 11
387.663847959407
 21
94.086158696533
 31
0.0
  0
LINE
  5
1A3
330
170
100
AcDbEntity
  8
profile
  6
AUSGEZOGEN
 62
     3
420
    65280
370
    18
100
AcDbLine
 10
271.463927959407
 20
22.185108696533
 30
0.0
 11
271.463927959407
 21
94.086158696533
 31
0.0
  0
LINE
  5
1A4
330
170
100
AcDbEntity
  8
profile
  6
AUSGEZOGEN
 62
     3
420
    65280
370
    18
100
AcDbLine
 10
308.917226674882
 20
90.911158696533
 30
0.0
 11
350.173604823227
 21
90.911158696533
 31
0.0
  0
LINE
  5
1A5
330
170
100
AcDbEntity
  8
profile
  6
AUSGEZOGEN
 62
     3
420
    65280
370
    18
100
AcDbLine
 10
370.799535534447
 20
94.086158696533
 30
0.0
 11
387.663847959407
 21
94.086158696533
 31
0.0
  0
LINE
  5
1A6
330
170
100
AcDbEntity
  8
profile
  6
AUSGEZOGEN
 62
     3
420
    65280
370
    18
100
AcDbLine
 10
271.463927959407
 20
94.086158696533
 30
0.0
 11
288.264875316891
 21
94.086158696533
 31
0.0
  0
LINE
  5
1A7
330
170
100
AcDbEntity
  8
profile
  6
AUSGEZOGEN
 62
     3
420
    65280
370
    18
100
AcDbLine
 10
359.617490668523
 20
82.904113830609
 30
0.0
 11
370.799535534447
 21
94.086158696533
 31
0.0
  0
LINE
  5
1A8
330
170
100
AcDbEntity
  8
profile
  6
AUSGEZOGEN
 62
     3
420
    65280
370
    18
100
AcDbLine
 10
358.180649689151
 20
82.904113830609
 30
0.0
 11
350.173604823227
 21
90.911158696533
 31
0.0
  0
LINE
  5
1A9
330
170
100
AcDbEntity
  8
profile
  6
AUSGEZOGEN
 62
     3
420
    65280
370
    18
100
AcDbLine
 10
300.896971485572
 20
82.890903507223
 30
0.0
 11
308.917226674882
 21
90.911158696533
 31
0.0
  0
LINE
  5
1AA
330
170
100
AcDbEntity
  8
profile
  6
AUSGEZOGEN
 62
     3
420
    65280
370
    18
100
AcDbLine
 10
299.460130506201
 20
82.890903507223
 30
0.0
 11
288.264875316891
 21
94.086158696533
 31
0.0
  0
LINE
  5
1AB
330
170
100
AcDbEntity
  8
Layer2
  6
AUSGEZOGEN
 62
    18
420
        0
370
    18
100
AcDbLine
 10
303.833476225684
 20
103.256734320294
 30
0.0
 11
291.463887959407
 21
90.887146054017
 31
0.0
  0
ARC
  5
1AC
330
170
100
AcDbEntity
  8
profile
  6
AUSGEZOGEN
 62
     3
420
    65280
370
    18
100
AcDbCircle
 10
358.899070178837
 20
83.622534320294
 30
0.0
 40
1.016
100
AcDbArc
 50
225.0
 51
315.0
  0
ARC
  5
1AD
330
170
100
AcDbEntity
  8
profile
  6
AUSGEZOGEN
 62
     3
420
    65280
370
    18
100
AcDbCircle
 10
300.178550995886
 20
83.609323996908
 30
0.0
 40
1.016
100
AcDbArc
 50
225.0
 51
315.0
  0
INSERT
  5
1B9
330
170
100
AcDbEntity
  8
0
100
AcDbBlockReference
  2
DimBlk_nNn03
 10
0.0
 20
0.0
 30
0.0
  0
LINE
  5
1BA
330
170
100
AcDbEntity
  8
profile
  6
AUSGEZOGEN
 62
    18
420
        0
370
    18
100
AcDbLine
 10
355.230934625653
 20
103.256734320294
 30
0.0
 11
303.833476225684
 21
103.256734320294
 31
0.0
  0
INSERT
  5
1C6
330
170
100
AcDbEntity
  8
0
100
AcDbBlockReference
  2
DimBlk_nNn04
 10
0.0
 20
0.0
 30
0.0
  0
INSERT
  5
1D2
330
170
100
AcDbEntity
  8
0
100
AcDbBlockReference
  2
DimBlk_nNn05
 10
0.0
 20
0.0
 30
0.0
  0
LINE
  5
1D3
330
170
100
AcDbEntity
  8
Layer2
  6
AUSGEZOGEN
 62
    18
420
        0
370
    18
100
AcDbLine
 10
367.600522891931
 20
90.887146054017
 30
0.0
 11
355.230934625653
 21
103.256734320294
 31
0.0
  0
INSERT
  5
1DF
330
170
100
AcDbEntity
  8
0
100
AcDbBlockReference
  2
DimBlk_nNn06
 10
0.0
 20
0.0
 30
0.0
  0
INSERT
  5
1EB
330
170
100
AcDbEntity
  8
0
100
AcDbBlockReference
  2
DimBlk_nNn07
 10
0.0
 20
0.0
 30
0.0
  0
TEXT
  5
1EC
330
170
100
AcDbEntity
  8
profile
  6
AUSGEZOGEN
 62
     5
420
      255
370
    18
100
AcDbText
 10
315.15070847914
 20
57.723156866667
 30
0.0
 40
3.5
  1
CR 3.000"
 41
1.387046325746
  7
Arial
 72
     5
 11
346.181708878729
 21
57.723156866667
 31
0.0
100
AcDbText
  0
WIPEOUT
  5
1ED
330
170
100
AcDbEntity
  8
profile
  6
AUSGEZOGEN
 62
     5
420
      255
370
    18
 92
      308
310
34010000070000000C0000000E000000120000000C00000016000000000000C20C00000014000000010000006C0000000700000004000000CDC99441FEAD77401ACD9D794B443840000000000000000033301BD516E477401ACD9D794B443840000000000000000033301BD516E47740B4663713E5DD3D4000000000000000
310
00CDC99441FEAD7740B4663713E5DD3D4000000000000000000C0000000E000000050000000C00000016000000FF0000C2840000000600000005000000CDC99441FEAD77401ACD9D794B443840000000000000000033301BD516E477401ACD9D794B443840000000000000000033301BD516E47740B4663713E5DD3D400000
310
000000000000CDC99441FEAD7740B4663713E5DD3D400000000000000000CDC99441FEAD77401ACD9D794B4438400000000000000000
100
AcDbWipeout
 90
        0
 10
378.87457426186
 20
24.266776658083
 30
0.0
 11
5.600000000000001
 21
0.0
 31
0.0
 12
0.0
 22
5.600000000000001
 32
0.0
 13
1.0
 23
1.0
340
0
 70
     7
280
     1
281
    50
282
    50
283
     0
360
0
 71
     2
 91
        5
 14
-0.5
 24
0.5
 14
0.103750011751
 24
0.5
 14
0.103750011751
 24
-0.5
 14
-0.5
 24
-0.5
 14
-0.5
 24
0.5
  0
TEXT
  5
1EE
330
170
100
AcDbEntity
  8
profile
  6
AUSGEZOGEN
 62
     5
420
      255
370
    18
100
AcDbText
 10
378.87457426186
 20
25.316776658083
 30
0.0
 40
3.5
  1
T
 41
1.13247364455
  7
Arial
 72
     5
 11
382.255574327664
 21
25.316776658083
 31
0.0
100
AcDbText
  0
TEXT
  5
1EF
330
170
100
AcDbEntity
  8
profile
  6
AUSGEZOGEN
 62
     1
420
 16711680
370
    18
100
AcDbText
 10
327.713156393437
 20
-8.260124809043
 30
0.0
 40
3.5
  1
CR 3.000"
 41
1.387046325746
  7
Arial
 72
     5
 11
358.744156793027
 21
-8.260124809043
 31
0.0
100
AcDbText
  0
WIPEOUT
  5
1F0
330
170
100
AcDbEntity
  8
profile
  6
AUSGEZOGEN
 62
     1
420
 16711680
370
    18
 92
      308
310
34010000070000000C0000000E000000120000000C00000016000000000000C20C00000014000000010000006C0000000700000004000000E58363E08F9A7840087B85E3A6E523C000000000000000004BEA594B4CC57A40087B85E3A6E523C000000000000000004BEA594B4CC57A40A88FA460E76411C000000000000000
310
00E58363E08F9A7840A88FA460E76411C000000000000000000C0000000E000000010000000C000000160000000000FFC2840000000600000005000000E58363E08F9A7840087B85E3A6E523C000000000000000004BEA594B4CC57A40087B85E3A6E523C000000000000000004BEA594B4CC57A40A88FA460E76411C00000
310
000000000000E58363E08F9A7840A88FA460E76411C00000000000000000E58363E08F9A7840087B85E3A6E523C00000000000000000
100
AcDbWipeout
 90
        0
 10
393.660126103145
 20
-9.948538885159
 30
0.0
 11
34.67100044488905
 21
0.0
 31
0.0
 12
0.0
 22
34.67100044488905
 32
0.0
 13
1.0
 23
1.0
340
0
 70
     7
280
     1
281
    50
282
    50
283
     0
360
0
 71
     2
 91
        5
 14
-0.5
 24
0.5
 14
0.5
 24
0.5
 14
0.5
 24
0.338481730318
 14
-0.5
 24
0.338481730318
 14
-0.5
 24
0.5
  0
TEXT
  5
1F1
330
170
100
AcDbEntity
  8
profile
  6
AUSGEZOGEN
 62
     1
420
 16711680
370
    18
100
AcDbText
 10
393.660126103145
 20
-8.898538885159
 30
0.0
 40
3.5
  1
10-29-2014
 41
1.387783710719
  7
Arial
 72
     5
 11
428.331126548034
 21
-8.898538885159
 31
0.0
100
AcDbText
  0
INSERT
  5
1FE
330
170
100
AcDbEntity
  8
0
100
AcDbBlockReference
  2
DimBlk_nNn08
 10
0.0
 20
0.0
 30
0.0
  0
INSERT
  5
20B
330
170
100
AcDbEntity
  8
0
100
AcDbBlockReference
  2
DimBlk_nNn09
 10
0.0
 20
0.0
 30
0.0
  0
INSERT
  5
216
330
170
100
AcDbEntity
  8
0
100
AcDbBlockReference
  2
DimBlk_nNn010
 10
0.0
 20
0.0
 30
0.0
  0
INSERT
  5
221
330
170
100
AcDbEntity
  8
0
100
AcDbBlockReference
  2
DimBlk_nNn011
 10
0.0
 20
0.0
 30
0.0
  0
LINE
  5
222
330
170
100
AcDbEntity
  8
profile
  6
AUSGEZOGEN
 62
     5
420
      255
370
    18
100
AcDbLine
 10
367.600522891931
 20
57.632125908034
 30
0.0
 11
367.600522891931
 21
72.215248176027
 31
0.0
  0
WIPEOUT
  5
223
330
170
100
AcDbEntity
  8
profile
  6
AUSGEZOGEN
 62
    18
420
        0
370
    18
 92
      260
310
04010000030000000C00000014000000010000006C000000070000000400000083EAC19846E77040E826791FCDEC2E4000000000000000001D846B4E0F2E7840E826791FCDEC2E4000000000000000001D846B4E0F2E78400E2D562900103540000000000000000083EAC19846E770400E2D56290010354000000000000000
310
0084000000060000000500000083EAC19846E77040E826791FCDEC2E4000000000000000001D846B4E0F2E7840E826791FCDEC2E4000000000000000001D846B4E0F2E78400E2D562900103540000000000000000083EAC19846E770400E2D562900103540000000000000000083EAC19846E77040E826791FCDEC2E400000
310
000000000000
100
AcDbWipeout
 90
        0
 10
270.45473552464
 20
15.462502463855
 30
0.0
 11
116.4240013718605
 21
0.0
 31
0.0
 12
0.0
 22
116.4240013718605
 32
0.0
 13
1.0
 23
1.0
340
0
 70
     7
280
     1
281
    50
282
    50
283
     0
360
0
 71
     2
 91
        5
 14
-0.5
 24
0.5
 14
0.5
 24
0.5
 14
0.5
 24
0.451899952467
 14
-0.5
 24
0.451899952467
 14
-0.5
 24
0.5
  0
TEXT
  5
224
330
170
100
AcDbEntity
  8
profile
  6
AUSGEZOGEN
 62
    18
420
        0
370
    18
100
AcDbText
 10
270.45473552464
 20
16.512502463855
 30
0.0
 40
3.5
  1
Cut steel size @ 3.750"L  X  2.000"W
 41
1.438505465835
  7
Arial
 72
     5
 11
386.8787368965
 21
16.512502463855
 31
0.0
100
AcDbText
  0
INSERT
  5
231
330
170
100
AcDbEntity
  8
0
100
AcDbBlockReference
  2
DimBlk_nNn012
 10
0.0
 20
0.0
 30
0.0
  0
LINE
  5
232
330
170
100
AcDbEntity
  8
profile
  6
AUSGEZOGEN
 62
     5
420
      255
370
    18
100
AcDbLine
 10
231.284450823959
 20
0.511508498577
 30
0.0
 11
432.452450823959
 21
0.511508498577
 31
0.0
  0
LINE
  5
233
330
170
100
AcDbEntity
  8
profile
  6
AUSGEZOGEN
 62
     5
420
      255
370
    18
100
AcDbLine
 10
231.284450823959
 20
-10.684552483844
 30
0.0
 11
432.452450823959
 21
-10.684552483844
 31
0.0
  0
LINE
  5
234
330
170
100
AcDbEntity
  8
profile
  6
AUSGEZOGEN
 62
     5
420
      255
370
    18
100
AcDbLine
 10
432.452450823959
 20
-22.732596415347
 30
0.0
 11
231.284450823959
 21
-22.732596415347
 31
0.0
  0
TEXT
  5
235
330
170
100
AcDbEntity
  8
profile
  6
AUSGEZOGEN
 62
    18
420
        0
370
    18
100
AcDbText
 10
233.783438626333
 20
2.152093962088
 30
0.0
 40
3.5
  1
KNIFE GRIND NEEDED ?
 41
1.427091498526
  7
Lucida Calligraphy
 72
     5
 11
315.528666753391
 21
2.152093962088
 31
0.0
100
AcDbText
  0
TEXT
  5
236
330
170
100
AcDbEntity
  8
profile
  6
AUSGEZOGEN
 62
     5
420
      255
370
    18
100
AcDbText
 10
231.867644057391
 20
-20.756328191145
 30
0.0
 40
3.5
  1
Circle one
 41
0.902435142448
  7
Lucida Calligraphy
 72
     5
 11
251.712644057391
 21
-20.756328191145
 31
0.0
100
AcDbText
  0
TEXT
  5
237
330
170
100
AcDbEntity
  8
profile
  6
AUSGEZOGEN
 62
     5
420
      255
370
    18
100
AcDbText
 10
232.329565859394
 20
-15.993367660602
 30
0.0
 40
3.5
  1
Ship via
 41
1.088691690241
  7
Lucida Calligraphy
 72
     5
 11
251.248305706563
 21
-15.993367660602
 31
0.0
100
AcDbText
  0
TEXT
  5
238
330
170
100
AcDbEntity
  8
profile
  6
AUSGEZOGEN
 62
     5
420
      255
370
    18
100
AcDbText
 10
358.905186163155
 20
-18.606993710664
 30
0.0
 40
3.880555555556
  1
UPS -
 41
0.889874060598
  7
Lucida Calligraphy
 72
     5
 11
371.761471094447
 21
-18.606993710664
 31
0.0
100
AcDbText
  0
TEXT
  5
239
330
170
100
AcDbEntity
  8
profile
  6
AUSGEZOGEN
 62
    18
420
        0
370
    18
100
AcDbText
 10
339.382438421096
 20
-18.560463337067
 30
0.0
 40
3.55825947599
  1
2 Day
 41
0.931746313857
  7
Lucida Calligraphy
 72
     5
 11
351.470369139823
 21
-18.560463337067
 31
0.0
100
AcDbText
  0
TEXT
  5
23A
330
170
100
AcDbEntity
  8
profile
  6
AUSGEZOGEN
 62
    18
420
        0
370
    18
100
AcDbText
 10
312.604240666927
 20
-16.239292515645
 30
0.0
 40
2.469444444444
  1
Standard
 41
1.361935045736
  7
Lucida Calligraphy
 72
     5
 11
331.653535355959
 21
-16.239292515645
 31
0.0
100
AcDbText
  0
TEXT
  5
23B
330
170
100
AcDbEntity
  8
profile
  6
AUSGEZOGEN
 62
    18
420
        0
370
    18
100
AcDbText
 10
312.604240666927
 20
-20.190403685632
 30
0.0
 40
2.469444444444
  1
Overnight
 41
1.39695919784
  7
Lucida Calligraphy
 72
     5
 11
333.478454817898
 21
-20.190403685632
 31
0.0
100
AcDbText
  0
TEXT
  5
23C
330
170
100
AcDbEntity
  8
profile
  6
AUSGEZOGEN
 62
    18
420
        0
370
    18
100
AcDbText
 10
285.681529747105
 20
-16.174678912459
 30
0.0
 40
2.469444444444
  1
Priority
 41
1.595671214319
  7
Lucida Calligraphy
 72
     5
 11
302.794779954013
 21
-16.174678912459
 31
0.0
100
AcDbText
  0
TEXT
  5
23D
330
170
100
AcDbEntity
  8
profile
  6
AUSGEZOGEN
 62
    18
420
        0
370
    18
100
AcDbText
 10
285.681529747105
 20
-20.125790082446
 30
0.0
 40
2.469444444444
  1
Overnight
 41
1.39695919784
  7
Lucida Calligraphy
 72
     5
 11
306.555743898077
 21
-20.125790082446
 31
0.0
100
AcDbText
  0
TEXT
  5
23E
330
170
100
AcDbEntity
  8
profile
  6
AUSGEZOGEN
 62
     5
420
      255
370
    18
100
AcDbText
 10
259.812987267115
 20
-18.649848895147
 30
0.0
 40
3.880555555556
  1
FEDEX -
 41
0.870751925974
  7
Lucida Calligraphy
 72
     5
 11
278.421147006852
 21
-18.649848895147
 31
0.0
100
AcDbText
  0
TEXT
  5
23F
330
170
100
AcDbEntity
  8
profile
  6
AUSGEZOGEN
 62
    18
420
        0
370
    18
100
AcDbText
 10
377.409412332632
 20
-18.327161579005
 30
0.0
 40
3.175
  1
Red  Blue  Ground
 41
1.345588251381
  7
Lucida Calligraphy
 72
     5
 11
426.796537923076
 21
-18.327161579005
 31
0.0
100
AcDbText
  0
LINE
  5
240
330
170
100
AcDbEntity
  8
profile
  6
AUSGEZOGEN
 62
     5
420
      255
370
    18
100
AcDbLine
 10
355.472848279983
 20
-22.732596415347
 30
0.0
 11
355.472848279983
 21
-10.845490632619
 31
0.0
  0
TEXT
  5
241
330
170
100
AcDbEntity
  8
profile
  6
AUSGEZOGEN
 62
     1
420
 16711680
370
    18
100
AcDbText
 10
280.023078322247
 20
-8.457040297964
 30
0.0
 40
3.5
  1
FULL
 41
1.318195155484
  7
Lucida Calligraphy
 72
     5
 11
295.769578552083
 21
-8.457040297964
 31
0.0
100
AcDbText
  0
LINE
  5
242
330
170
100
AcDbEntity
  8
profile
  6
AUSGEZOGEN
 62
     5
420
      255
370
    18
100
AcDbLine
 10
231.284450823959
 20
-22.732596415347
 30
0.0
 11
231.284450823959
 21
239.217603584653
 31
0.0
  0
LINE
  5
243
330
170
100
AcDbEntity
  8
profile
  6
AUSGEZOGEN
 62
     5
420
      255
370
    18
100
AcDbLine
 10
432.452450823959
 20
-22.732596415347
 30
0.0
 11
432.452450823959
 21
239.217603584653
 31
0.0
  0
LINE
  5
244
330
170
100
AcDbEntity
  8
profile
  6
AUSGEZOGEN
 62
     5
420
      255
370
    18
100
AcDbLine
 10
432.452450823959
 20
239.217603584653
 30
0.0
 11
231.284450823959
 21
239.217603584653
 31
0.0
  0
WIPEOUT
  5
245
330
170
100
AcDbEntity
  8
profile
  6
AUSGEZOGEN
 62
     5
420
      255
370
    18
 92
      308
310
34010000070000000C0000000E000000120000000C00000016000000000000C20C00000014000000010000006C00000007000000040000002F9B784D6B1C6D40C04022A5DB9B20400000000000000000F4E24BFB59107640C04022A5DB9B20400000000000000000F4E24BFB59107640082DEA1551D92D4000000000000000
310
002F9B784D6B1C6D40082DEA1551D92D4000000000000000000C0000000E000000050000000C00000016000000FF0000C28400000006000000050000002F9B784D6B1C6D40C04022A5DB9B20400000000000000000F4E24BFB59107640C04022A5DB9B20400000000000000000F4E24BFB59107640082DEA1551D92D400000
310
0000000000002F9B784D6B1C6D40082DEA1551D92D4000000000000000002F9B784D6B1C6D40C04022A5DB9B20400000000000000000
100
AcDbWipeout
 90
        0
 10
232.888098464545
 20
8.304410133773
 30
0.0
 11
120.1338697060326
 21
0.0
 31
0.0
 12
0.0
 22
120.1338697060326
 32
0.0
 13
1.0
 23
1.0
340
0
 70
     7
280
     1
281
    50
282
    50
283
     0
360
0
 71
     2
 91
        5
 14
-0.5
 24
0.5
 14
0.5
 24
0.5
 14
0.5
 24
0.444894502762
 14
-0.5
 24
0.444894502762
 14
-0.5
 24
0.5
  0
TEXT
  5
246
330
170
100
AcDbEntity
  8
profile
  6
AUSGEZOGEN
 62
     5
420
      255
370
    18
100
AcDbText
 10
232.888098464545
 20
9.545667001016
 30
0.0
 40
4.137522890809
  1
PLEASE SIGN OR MAKE CORRECT CHANGES.
 41
0.935804806331
  7
Lucida Calligraphy
 72
     5
 11
353.021968170578
 21
9.545667001016
 31
0.0
100
AcDbText
  0
WIPEOUT
  5
247
330
170
100
AcDbEntity
  8
profile
  6
AUSGEZOGEN
 62
     1
420
 16711680
370
    18
 92
      308
310
34010000070000000C0000000E000000120000000C00000016000000000000C20C00000014000000010000006C0000000700000004000000AC48D405FE4E7640102844B0228620400000000000000000E07B17510A027B40102844B0228620400000000000000000E07B17510A027B40445B77E355B92B4000000000000000
310
00AC48D405FE4E7640445B77E355B92B4000000000000000000C0000000E000000010000000C000000160000000000FFC2840000000600000005000000AC48D405FE4E7640102844B0228620400000000000000000E07B17510A027B40102844B0228620400000000000000000E07B17510A027B40445B77E355B92B400000
310
000000000000AC48D405FE4E7640445B77E355B92B400000000000000000AC48D405FE4E7640102844B0228620400000000000000000
100
AcDbWipeout
 90
        0
 10
356.937017277941
 20
8.261983402557
 30
0.0
 11
75.19050146341323
 21
0.0
 31
0.0
 12
0.0
 22
75.19050146341323
 32
0.0
 13
1.0
 23
1.0
340
0
 70
     7
280
     1
281
    50
282
    50
283
     0
360
0
 71
     2
 91
        5
 14
-0.5
 24
0.5
 14
0.5
 24
0.5
 14
0.5
 24
0.425522507617
 14
-0.5
 24
0.425522507617
 14
-0.5
 24
0.5
  0
TEXT
  5
248
330
170
100
AcDbEntity
  8
profile
  6
AUSGEZOGEN
 62
     1
420
 16711680
370
    18
100
AcDbText
 10
356.937017277941
 20
9.311983402557
 30
0.0
 40
3.5
  1
X------------------
 41
2.309751684563
  7
Brush Script MT
 72
     5
 11
432.127518741354
 21
9.311983402557
 31
0.0
100
AcDbText
  0
LINE
  5
249
330
170
100
AcDbEntity
  8
profile
  6
AUSGEZOGEN
 62
    18
420
        0
370
    18
100
AcDbLine
 10
274.988216250411
 20
217.688963704718
 30
0.0
 11
282.216428093679
 21
217.688963704718
 31
0.0
  0
LINE
  5
24A
330
170
100
AcDbEntity
  8
profile
  6
AUSGEZOGEN
 62
    18
420
        0
370
    18
100
AcDbLine
 10
274.988216250411
 20
216.007223841158
 30
0.0
 11
282.216428093679
 21
216.007223841158
 31
0.0
  0
LINE
  5
24B
330
170
100
AcDbEntity
  8
profile
  6
AUSGEZOGEN
 62
    18
420
        0
370
    18
100
AcDbLine
 10
270.933365704187
 20
216.007223841158
 30
0.0
 11
274.224258901122
 21
216.007223841158
 31
0.0
  0
LINE
  5
24C
330
170
100
AcDbEntity
  8
profile
  6
AUSGEZOGEN
 62
    18
420
        0
370
    18
100
AcDbLine
 10
266.937281107909
 20
216.007223841158
 30
0.0
 11
270.051876455008
 21
216.007223841158
 31
0.0
  0
LINE
  5
24D
330
170
100
AcDbEntity
  8
profile
  6
AUSGEZOGEN
 62
    18
420
        0
370
    18
100
AcDbLine
 10
282.216428093679
 20
218.374116982465
 30
0.0
 11
282.216428093679
 21
223.887111147203
 31
0.0
  0
LINE
  5
24E
330
170
100
AcDbEntity
  8
profile
  6
AUSGEZOGEN
 62
    18
420
        0
370
    18
100
AcDbLine
 10
282.216428093679
 20
216.007223841158
 30
0.0
 11
282.216428093679
 21
217.688963704718
 31
0.0
  0
LINE
  5
24F
330
170
100
AcDbEntity
  8
profile
  6
AUSGEZOGEN
 62
    18
420
        0
370
    18
100
AcDbLine
 10
266.937281107909
 20
216.007223841158
 30
0.0
 11
266.937281107909
 21
226.969676285106
 31
0.0
  0
LINE
  5
250
330
170
100
AcDbEntity
  8
profile
  6
AUSGEZOGEN
 62
    18
420
        0
370
    18
100
AcDbLine
 10
270.051876455008
 20
216.007223841158
 30
0.0
 11
270.051876455008
 21
223.298930106365
 31
0.0
  0
LINE
  5
251
330
170
100
AcDbEntity
  8
profile
  6
AUSGEZOGEN
 62
    18
420
        0
370
    18
100
AcDbLine
 10
270.933365704187
 20
216.007223841158
 30
0.0
 11
270.933365704187
 21
223.298930106365
 31
0.0
  0
LINE
  5
252
330
170
100
AcDbEntity
  8
profile
  6
AUSGEZOGEN
 62
    18
420
        0
370
    18
100
AcDbLine
 10
274.988216250411
 20
218.374116982465
 30
0.0
 11
274.988216250411
 21
223.302599471465
 31
0.0
  0
LINE
  5
253
330
170
100
AcDbEntity
  8
profile
  6
AUSGEZOGEN
 62
    18
420
        0
370
    18
100
AcDbLine
 10
274.988216250411
 20
216.007223841158
 30
0.0
 11
274.988216250411
 21
217.688963704718
 31
0.0
  0
LINE
  5
254
330
170
100
AcDbEntity
  8
profile
  6
AUSGEZOGEN
 62
    18
420
        0
370
    18
100
AcDbLine
 10
279.101832746579
 20
218.374116982465
 30
0.0
 11
279.101832746579
 21
226.969676285106
 31
0.0
  0
LINE
  5
255
330
170
100
AcDbEntity
  8
profile
  6
AUSGEZOGEN
 62
    18
420
        0
370
    18
100
AcDbLine
 10
279.101832746579
 20
218.374116982465
 30
0.0
 11
282.216428093679
 21
218.374116982465
 31
0.0
  0
LINE
  5
256
330
170
100
AcDbEntity
  8
profile
  6
AUSGEZOGEN
 62
    18
420
        0
370
    18
100
AcDbLine
 10
274.988216250411
 20
218.374116982465
 30
0.0
 11
278.10281159751
 21
218.374116982465
 31
0.0
  0
LINE
  5
257
330
170
100
AcDbEntity
  8
profile
  6
AUSGEZOGEN
 62
    18
420
        0
370
    18
100
AcDbLine
 10
279.101832746579
 20
226.969676285106
 30
0.0
 11
283.316368004865
 21
226.969676285106
 31
0.0
  0
LINE
  5
258
330
170
100
AcDbEntity
  8
profile
  6
AUSGEZOGEN
 62
    18
420
        0
370
    18
100
AcDbLine
 10
266.937281107909
 20
226.969676285106
 30
0.0
 11
270.190626505306
 21
226.969676285106
 31
0.0
  0
ARC
  5
259
330
170
100
AcDbEntity
  8
profile
  6
AUSGEZOGEN
 62
    18
420
        0
370
    18
100
AcDbCircle
 10
270.190626505306
 20
224.057623166225
 30
0.0
 40
2.912053118881551
100
AcDbArc
 50
32.066426975729
 51
90.0
  0
LINE
  5
25A
330
170
100
AcDbEntity
  8
profile
  6
AUSGEZOGEN
 62
    18
420
        0
370
    18
100
AcDbLine
 10
278.10281159751
 20
218.374116982465
 30
0.0
 11
278.10281159751
 21
224.015977984819
 31
0.0
  0
ARC
  5
25B
330
170
100
AcDbEntity
  8
profile
  6
AUSGEZOGEN
 62
    18
420
        0
370
    18
100
AcDbCircle
 10
275.149113297223
 20
224.015977984819
 30
0.0
 40
2.953698300287107
100
AcDbArc
 50
0.0
 51
147.485292992988
  0
ARC
  5
25C
330
170
100
AcDbEntity
  8
profile
  6
AUSGEZOGEN
 62
    18
420
        0
370
    18
100
AcDbCircle
 10
270.492621079598
 20
223.298930106365
 30
0.0
 40
0.4407446245895066
100
AcDbArc
 50
0.0
 51
180.0
  0
LINE
  5
25D
330
170
100
AcDbEntity
  8
profile
  6
AUSGEZOGEN
 62
    18
420
        0
370
    18
100
AcDbLine
 10
287.564129538698
 20
216.007223841158
 30
0.0
 11
285.736297208515
 21
220.527681791125
 31
0.0
  0
ARC
  5
25E
330
170
100
AcDbEntity
  8
profile
  6
AUSGEZOGEN
 62
    18
420
        0
370
    18
100
AcDbCircle
 10
283.316368004865
 20
223.294156967649
 30
0.0
 40
3.675519317457272
100
AcDbArc
 50
311.177284003839
 51
90.0
  0
LINE
  5
25F
330
170
100
AcDbEntity
  8
profile
  6
AUSGEZOGEN
 62
    18
420
        0
370
    18
100
AcDbLine
 10
282.216428093679
 20
223.887111147203
 30
0.0
 11
282.885788525628
 21
223.887111147203
 31
0.0
  0
ARC
  5
260
330
170
100
AcDbEntity
  8
profile
  6
AUSGEZOGEN
 62
    18
420
        0
370
    18
100
AcDbCircle
 10
282.885788525628
 20
223.107946346793
 30
0.0
 40
0.7791648004099827
100
AcDbArc
 50
269.396898994247
 51
90.0
  0
LINE
  5
261
330
170
100
AcDbEntity
  8
profile
  6
AUSGEZOGEN
 62
    18
420
        0
370
    18
100
AcDbLine
 10
283.938283665924
 20
216.007223841158
 30
0.0
 11
287.564129538698
 21
216.007223841158
 31
0.0
  0
LINE
  5
262
330
170
100
AcDbEntity
  8
profile
  6
AUSGEZOGEN
 62
    18
420
        0
370
    18
100
AcDbLine
 10
283.938283665924
 20
216.007223841158
 30
0.0
 11
282.877587111822
 21
218.617075221985
 31
0.0
  0
LINE
  5
263
330
170
100
AcDbEntity
  8
profile
  6
AUSGEZOGEN
 62
    18
420
        0
370
    18
100
AcDbLine
 10
282.885788525628
 20
222.328781546383
 30
0.0
 11
282.877587111822
 21
222.328781546383
 31
0.0
  0
LINE
  5
264
330
170
100
AcDbEntity
  8
profile
  6
AUSGEZOGEN
 62
    18
420
        0
370
    18
100
AcDbLine
 10
282.877587111822
 20
218.617075221985
 30
0.0
 11
282.877587111822
 21
222.328824711226
 31
0.0
  0
LINE
  5
265
330
170
100
AcDbEntity
  8
profile
  6
AUSGEZOGEN
 62
    18
420
        0
370
    18
100
AcDbLine
 10
274.114065731432
 20
216.007223841158
 30
0.0
 11
274.114065731432
 21
223.302599471465
 31
0.0
  0
ARC
  5
266
330
170
100
AcDbEntity
  8
profile
  6
AUSGEZOGEN
 62
    18
420
        0
370
    18
100
AcDbCircle
 10
274.551140990921
 20
223.302599471465
 30
0.0
 40
0.437075259489488
100
AcDbArc
 50
0.0
 51
180.0
  0
LINE
  5
267
330
170
100
AcDbEntity
  8
profile
  6
AUSGEZOGEN
 62
    18
420
        0
370
    18
100
AcDbLine
 10
285.671864896347
 20
233.539708434874
 30
0.0
 11
289.886400154632
 21
233.539708434874
 31
0.0
  0
LINE
  5
268
330
170
100
AcDbEntity
  8
profile
  6
AUSGEZOGEN
 62
    18
420
        0
370
    18
100
AcDbLine
 10
273.507313257677
 20
233.539708434874
 30
0.0
 11
276.760658655073
 21
233.539708434874
 31
0.0
  0
ARC
  5
269
330
170
100
AcDbEntity
  8
profile
  6
AUSGEZOGEN
 62
    18
420
        0
370
    18
100
AcDbCircle
 10
276.760658655073
 20
230.627655315992
 30
0.0
 40
2.912053118881559
100
AcDbArc
 50
33.472713849325
 51
90.0
  0
ARC
  5
26A
330
170
100
AcDbEntity
  8
profile
  6
AUSGEZOGEN
 62
    18
420
        0
370
    18
100
AcDbCircle
 10
281.71914544699
 20
230.586010134587
 30
0.0
 40
2.953698300287107
100
AcDbArc
 50
31.162869112745
 51
135.0
  0
LINE
  5
26B
330
170
100
AcDbEntity
  8
profile
  6
AUSGEZOGEN
 62
    18
420
        0
370
    18
100
AcDbLine
 10
294.134161688466
 20
222.577255990925
 30
0.0
 11
292.306329358282
 21
227.097713940893
 31
0.0
  0
ARC
  5
26C
330
170
100
AcDbEntity
  8
profile
  6
AUSGEZOGEN
 62
    18
420
        0
370
    18
100
AcDbCircle
 10
289.886400154632
 20
229.864189117417
 30
0.0
 40
3.675519317457272
100
AcDbArc
 50
311.177284003839
 51
90.0
  0
LINE
  5
26D
330
170
100
AcDbEntity
  8
profile
  6
AUSGEZOGEN
 62
    18
420
        0
370
    18
100
AcDbLine
 10
273.507313257677
 20
233.539708434874
 30
0.0
 11
266.937281107909
 21
226.969676285106
 31
0.0
  0
LINE
  5
26E
330
170
100
AcDbEntity
  8
profile
  6
AUSGEZOGEN
 62
    18
420
        0
370
    18
100
AcDbLine
 10
294.134161688466
 20
222.577255990925
 30
0.0
 11
287.564129538698
 21
216.007223841158
 31
0.0
  0
LINE
  5
26F
330
170
100
AcDbEntity
  8
profile
  6
AUSGEZOGEN
 62
    18
420
        0
370
    18
100
AcDbLine
 10
292.306329358282
 20
227.097713940893
 30
0.0
 11
285.736297208515
 21
220.527681791125
 31
0.0
  0
LINE
  5
270
330
170
100
AcDbEntity
  8
profile
  6
AUSGEZOGEN
 62
    18
420
        0
370
    18
100
AcDbLine
 10
285.671864896347
 20
233.539708434874
 30
0.0
 11
279.101832746579
 21
226.969676285106
 31
0.0
  0
LINE
  5
271
330
170
100
AcDbEntity
  8
profile
  6
AUSGEZOGEN
 62
    18
420
        0
370
    18
100
AcDbLine
 10
273.060533199511
 20
226.104558082531
 30
0.0
 11
279.630565349278
 21
232.674590232299
 31
0.0
  0
LINE
  5
272
330
170
100
AcDbEntity
  8
profile
  6
AUSGEZOGEN
 62
    18
420
        0
370
    18
100
AcDbLine
 10
270.051876455008
 20
216.007223841158
 30
0.0
 11
270.933365704187
 21
216.888713090337
 31
0.0
  0
LINE
  5
273
330
170
100
AcDbEntity
  8
profile
  6
AUSGEZOGEN
 62
    18
420
        0
370
    18
100
AcDbLine
 10
274.224258901122
 20
216.007223841158
 30
0.0
 11
274.988216250411
 21
216.771181190446
 31
0.0
  0
LINE
  5
274
330
170
100
AcDbEntity
  8
profile
  6
AUSGEZOGEN
 62
    18
420
        0
370
    18
100
AcDbLine
 10
282.216428093679
 20
217.688963704718
 30
0.0
 11
282.954729707682
 21
218.427265318721
 31
0.0
  0
LINE
  5
275
330
170
100
AcDbEntity
  8
profile
  6
AUSGEZOGEN
 62
    18
420
        0
370
    18
100
AcDbLine
 10
282.216428093679
 20
216.007223841158
 30
0.0
 11
283.440710468538
 21
217.231506216017
 31
0.0
  0
LINE
  5
276
330
170
100
AcDbEntity
  8
profile
  6
AUSGEZOGEN
 62
    18
420
        0
370
    18
100
AcDbLine
 10
274.988216250411
 20
217.688963704718
 30
0.0
 11
275.673369528158
 21
218.374116982465
 31
0.0
  0
LINE
  5
277
330
170
100
AcDbEntity
  8
profile
  6
AUSGEZOGEN
 62
    18
420
        0
370
    18
100
AcDbLine
 10
278.10281159751
 20
218.374116982465
 30
0.0
 11
279.101832746579
 21
219.373138131534
 31
0.0
  0
LINE
  5
278
330
170
100
AcDbEntity
  8
profile
  6
AUSGEZOGEN
 62
    18
420
        0
370
    18
100
AcDbLine
 10
282.216428093679
 20
218.374116982465
 30
0.0
 11
282.877587111822
 21
219.035276000608
 31
0.0
  0
HATCH
  5
279
330
170
100
AcDbEntity
  8
profile
  6
AUSGEZOGEN
 62
    18
420
        0
370
    18
100
AcDbHatch
 10
0.0
 20
0.0
 30
0.0
210
0.0
220
0.0
230
1.0
  2
SOLID
 70
     1
 71
     0
 91
        1
 92
        2
 72
     1
 73
     1
 93
       36
 10
270.9333657041873
 20
223.2989301063648
 42
0.0
 10
270.9333657041873
 20
216.0072238411578
 42
0.0
 10
274.1140657314318
 20
216.0072238411578
 42
0.0
 10
274.1140657314318
 20
223.3025994714648
 42
-0.0984914033571201
 10
274.1473361045119
 20
223.4698609319681
 42
-0.0984914033573957
 10
274.2420821110474
 20
223.6116583513386
 42
-0.0984914033573227
 10
274.383879530418
 20
223.7064043578742
 42
-0.0984914033569877
 10
274.5511409909213
 20
223.7396747309542
 42
-0.0984914033570521
 10
274.7184024514246
 20
223.7064043578742
 42
-0.09849140335735
 10
274.8601998707952
 20
223.6116583513386
 42
-0.0984914033573958
 10
274.9549458773307
 20
223.4698609319681
 42
-0.0984914033571136
 10
274.9882162504108
 20
223.3025994714648
 42
0.0
 10
274.9882162504108
 20
218.3741169824648
 42
0.0
 10
278.1028115975099
 20
218.3741169824648
 42
0.0
 10
278.1028115975099
 20
224.0159779848191
 42
0.0921921528156865
 10
277.9053454057328
 20
225.0778245900958
 42
0.0921921528156901
 10
277.3393495925868
 20
225.9976940642788
 42
0.0921921528156937
 10
276.4805021904376
 20
226.6525927204495
 42
0.0921921528156405
 10
275.4436377616395
 20
226.9549555262404
 42
0.0921921528156545
 10
274.3673931264284
 20
226.8643542281711
 42
0.0921921528156871
 10
273.3956705442293
 20
226.3929029228627
 42
0.0921921528156574
 10
272.6583968648849
 20
225.6036383083142
 42
0.0844609494626365
 10
272.0082859216758
 20
226.3327424187625
 42
0.0844609494626364
 10
271.1536387721038
 20
226.805833627813
 42
0.084460949462618
 10
270.1906265053057
 20
226.9696762851062
 42
0.0
 10
266.9372811079091
 20
226.9696762851062
 42
0.0
 10
266.9372811079091
 20
216.0072238411578
 42
0.0
 10
270.0518764550083
 20
216.0072238411578
 42
0.0
 10
270.0518764550083
 20
223.2989301063648
 42
-0.0984914033572098
 10
270.0854261418752
 20
223.4675957720991
 42
-0.0984914033570206
 10
270.180967566779
 20
223.6105836191836
 42
-0.0984914033570751
 10
270.3239554138634
 20
223.7061250440875
 42
-0.098491403357133
 10
270.4926210795978
 20
223.7396747309543
 42
-0.098491403357101
 10
270.6612867453322
 20
223.7061250440875
 42
-0.0984914033571021
 10
270.8042745924165
 20
223.6105836191836
 42
-0.0984914033570026
 10
270.8998160173204
 20
223.4675957720991
 42
-0.0984914033572098
 97
        0
 75
     0
 76
     1
 98
        0
  0
HATCH
  5
27A
330
170
100
AcDbEntity
  8
profile
  6
AUSGEZOGEN
 62
    18
420
        0
370
    18
100
AcDbHatch
 10
0.0
 20
0.0
 30
0.0
210
0.0
220
0.0
230
1.0
  2
SOLID
 70
     1
 71
     0
 91
        1
 92
        2
 72
     1
 73
     1
 93
       25
 10
283.3163680048645
 20
226.9696762851062
 42
0.0
 10
279.1018327465795
 20
226.9696762851062
 42
0.0
 10
279.1018327465795
 20
218.3741169824648
 42
0.0
 10
282.2164280936786
 20
218.3741169824648
 42
0.0
 10
282.2164280936786
 20
223.8871111472034
 42
0.0
 10
282.8857885256282
 20
223.8871111472034
 42
-0.0984914033573361
 10
283.1839619858272
 20
223.8278007583453
 42
-0.0984914033573228
 10
283.43674123966
 20
223.6588990608251
 42
-0.0984914033570853
 10
283.6056429371802
 20
223.4061198069924
 42
-0.0984914033571532
 10
283.6649533260382
 20
223.1079463467934
 42
-0.0984914033571352
 10
283.6056429371802
 20
222.8097728865944
 42
-0.0984914033570546
 10
283.43674123966
 20
222.5569936327616
 42
-0.098491403357323
 10
283.1839619858272
 20
222.3880919352413
 42
-0.0984914033573433
 10
282.8857885256282
 20
222.3287815463834
 42
0.0
 10
282.8775871118216
 20
222.3287815463834
 42
0.0
 10
282.8775871118216
 20
218.6170752219846
 42
0.0
 10
283.9382836659238
 20
216.0072238411578
 42
0.0
 10
287.564129538698
 20
216.0072238411578
 42
0.0
 10
285.7362972085147
 20
220.5276817911251
 42
0.0
 10
286.0828431813882
 20
220.8742277639985
 42
0.0956852398052985
 10
286.7850211383284
 20
222.0784729245224
 42
0.0956852398052948
 10
286.988252079743
 20
223.4575876675044
 42
0.0956852398053042
 10
286.6633023325663
 20
224.8131937871673
 42
0.0956852398052757
 10
285.8569141625457
 20
225.9502946662054
 42
0.0956852398052787
 10
284.6850821518161
 20
226.7053244858069
 42
0.0956852398052959
 97
        0
 75
     0
 76
     1
 98
        0
  0
HATCH
  5
27B
330
170
100
AcDbEntity
  8
profile
  6
AUSGEZOGEN
 62
     1
420
 16711680
370
    18
100
AcDbHatch
 10
0.0
 20
0.0
 30
0.0
210
0.0
220
0.0
230
1.0
  2
SOLID
 70
     1
 71
     0
 91
        1
 92
        2
 72
     0
 73
     1
 93
        4
 10
274.9882162504108
 20
217.688963704718
 10
274.9882162504108
 20
216.0072238411578
 10
282.2164280936786
 20
216.0072238411578
 10
282.2164280936786
 20
217.688963704718
 97
        0
 75
     0
 76
     1
 98
        0
  0
LINE
  5
27C
330
170
100
AcDbEntity
  8
profile
  6
AUSGEZOGEN
 62
     5
420
      255
370
    18
100
AcDbLine
 10
271.948460008061
 20
236.739161603945
 30
0.0
 11
391.801078240762
 21
236.739161603945
 31
0.0
  0
LINE
  5
27D
330
170
100
AcDbEntity
  8
profile
  6
AUSGEZOGEN
 62
     5
420
      255
370
    18
100
AcDbLine
 10
262.423460008061
 20
221.283396998076
 30
0.0
 11
262.423460008061
 21
227.214161603945
 31
0.0
  0
ARC
  5
27E
330
170
100
AcDbEntity
  8
profile
  6
AUSGEZOGEN
 62
     5
420
      255
370
    18
100
AcDbCircle
 10
271.948460008061
 20
227.214161603945
 30
0.0
 40
9.524999999999999
100
AcDbArc
 50
90.0
 51
180.0
  0
WIPEOUT
  5
27F
330
170
100
AcDbEntity
  8
profile
  6
AUSGEZOGEN
 62
     1
420
 16711680
370
    18
 92
      308
310
34010000070000000C0000000E000000120000000C00000016000000000000C20C00000014000000010000006C0000000700000004000000260B5F3175AC7240970BFCEC11896C400000000000000000E2E50F1710A47840970BFCEC11896C400000000000000000E2E50F1710A47840FF501FEEF0856D4000000000000000
310
00260B5F3175AC7240FF501FEEF0856D4000000000000000000C0000000E000000010000000C000000160000000000FFC2840000000600000005000000260B5F3175AC7240970BFCEC11896C400000000000000000E2E50F1710A47840970BFCEC11896C400000000000000000E2E50F1710A47840FF501FEEF0856D400000
310
000000000000260B5F3175AC7240FF501FEEF0856D400000000000000000260B5F3175AC7240970BFCEC11896C400000000000000000
100
AcDbWipeout
 90
        0
 10
298.778611537231
 20
228.283438198353
 30
0.0
 11
95.47531670650261
 21
0.0
 31
0.0
 12
0.0
 22
95.47531670650261
 32
0.0
 13
1.0
 23
1.0
340
0
 70
     7
280
     1
281
    50
282
    50
283
     0
360
0
 71
     2
 91
        5
 14
-0.5
 24
0.5
 14
0.5
 24
0.5
 14
0.5
 24
0.417232825249
 14
-0.5
 24
0.417232825249
 14
-0.5
 24
0.5
  0
TEXT
  5
280
330
170
100
AcDbEntity
  8
profile
  6
AUSGEZOGEN
 62
     1
420
 16711680
370
    18
100
AcDbText
 10
298.778611537231
 20
229.765104865019
 30
0.0
 40
4.938888888889
  1
Mirror Reflections Inc.
 41
1.424144335948
  7
Lucida Calligraphy
 72
     5
 11
394.253928243734
 21
229.765104865019
 31
0.0
100
AcDbText
  0
WIPEOUT
  5
281
330
170
100
AcDbEntity
  8
profile
  6
AUSGEZOGEN
 62
    18
420
        0
370
    18
 92
      260
310
04010000030000000C00000014000000010000006C000000070000000400000018A0E6B2F3A4724004C9EBD0A6E66B4000000000000000004825AA126DA6784004C9EBD0A6E66B4000000000000000004825AA126DA6784037FC1E04DA996C40000000000000000018A0E6B2F3A4724037FC1E04DA996C4000000000000000
310
0084000000060000000500000018A0E6B2F3A4724004C9EBD0A6E66B4000000000000000004825AA126DA6784004C9EBD0A6E66B4000000000000000004825AA126DA6784037FC1E04DA996C40000000000000000018A0E6B2F3A4724037FC1E04DA996C40000000000000000018A0E6B2F3A4724004C9EBD0A6E66B400000
310
000000000000
100
AcDbWipeout
 90
        0
 10
298.30949678505
 20
223.207863293188
 30
0.0
 11
96.0921323430548
 21
0.0
 31
0.0
 12
0.0
 22
96.0921323430548
 32
0.0
 13
1.0
 23
1.0
340
0
 70
     7
280
     1
281
    50
282
    50
283
     0
360
0
 71
     2
 91
        5
 14
-0.5
 24
0.5
 14
0.5
 24
0.5
 14
0.5
 24
0.441722596185
 14
-0.5
 24
0.441722596185
 14
-0.5
 24
0.5
  0
TEXT
  5
282
330
170
100
AcDbEntity
  8
profile
  6
AUSGEZOGEN
 62
    18
420
        0
370
    18
100
AcDbText
 10
298.30949678505
 20
224.257863293188
 30
0.0
 40
3.5
  1
1588 South 250 East - Kaysville Utah 84037
 41
1.002442491425
  7
Lucida Calligraphy
 72
     5
 11
394.401629128105
 21
224.257863293188
 31
0.0
100
AcDbText
  0
WIPEOUT
  5
283
330
170
100
AcDbEntity
  8
profile
  6
AUSGEZOGEN
 62
    18
420
        0
370
    18
 92
      260
310
04010000030000000C00000014000000010000006C0000000700000004000000FCC9F5B5F09572407466F78EC0336B400000000000000000AE274124F99C78407466F78EC0336B400000000000000000AE274124F99C7840A7992AC2F3E66B400000000000000000FCC9F5B5F0957240A7992AC2F3E66B4000000000000000
310
00840000000600000005000000FCC9F5B5F09572407466F78EC0336B400000000000000000AE274124F99C78407466F78EC0336B400000000000000000AE274124F99C7840A7992AC2F3E66B400000000000000000FCC9F5B5F0957240A7992AC2F3E66B400000000000000000FCC9F5B5F09572407466F78EC0336B400000
310
000000000000
100
AcDbWipeout
 90
        0
 10
297.371267280687
 20
217.617255671695
 30
0.0
 11
96.43955830993502
 21
0.0
 31
0.0
 12
0.0
 22
96.43955830993502
 32
0.0
 13
1.0
 23
1.0
340
0
 70
     7
280
     1
281
    50
282
    50
283
     0
360
0
 71
     2
 91
        5
 14
-0.5
 24
0.5
 14
0.5
 24
0.5
 14
0.5
 24
0.441932542018
 14
-0.5
 24
0.441932542018
 14
-0.5
 24
0.5
  0
TEXT
  5
284
330
170
100
AcDbEntity
  8
profile
  6
AUSGEZOGEN
 62
    18
420
        0
370
    18
100
AcDbText
 10
297.371267280687
 20
218.667255671695
 30
0.0
 40
3.5
  1
Phone / Fax (801)-451-5987
 41
1.571470258762
  7
Lucida Calligraphy
 72
     5
 11
393.810825590622
 21
218.667255671695
 31
0.0
100
AcDbText
  0
WIPEOUT
  5
285
330
170
100
AcDbEntity
  8
profile
  6
AUSGEZOGEN
 62
    18
420
        0
370
    18
 92
      260
310
04010000030000000C00000014000000010000006C00000007000000040000008AF3CAAB20917240103BDE184C816A400000000000000000287EF831EB997840103BDE184C816A400000000000000000287EF831EB9978405ADAD262EB356B4000000000000000008AF3CAAB209172405ADAD262EB356B4000000000000000
310
008400000006000000050000008AF3CAAB20917240103BDE184C816A400000000000000000287EF831EB997840103BDE184C816A400000000000000000287EF831EB9978405ADAD262EB356B4000000000000000008AF3CAAB209172405ADAD262EB356B4000000000000000008AF3CAAB20917240103BDE184C816A400000
310
000000000000
100
AcDbWipeout
 90
        0
 10
297.070476334361
 20
212.040539201779
 30
0.0
 11
96.54944436826361
 21
0.0
 31
0.0
 12
0.0
 22
96.54944436826361
 32
0.0
 13
1.0
 23
1.0
340
0
 70
     7
280
     1
281
    50
282
    50
283
     0
360
0
 71
     2
 91
        5
 14
-0.5
 24
0.5
 14
0.5
 24
0.5
 14
0.5
 24
0.441538302148
 14
-0.5
 24
0.441538302148
 14
-0.5
 24
0.5
  0
TEXT
  5
286
330
170
100
AcDbEntity
  8
profile
  6
AUSGEZOGEN
 62
    18
420
        0
370
    18
100
AcDbText
 10
297.070476334361
 20
213.098872535112
 30
0.0
 40
3.527777777778
  1
www.mirror-reflections.com
 41
1.618758291542
  7
Lucida Calligraphy
 72
     5
 11
393.619920702624
 21
213.098872535112
 31
0.0
100
AcDbText
  0
LINE
  5
287
330
170
100
AcDbEntity
  8
profile
  6
AUSGEZOGEN
 62
     5
420
      255
370
    18
100
AcDbLine
 10
401.326078240762
 20
221.283396998076
 30
0.0
 11
401.326078240762
 21
227.214161603945
 31
0.0
  0
ARC
  5
288
330
170
100
AcDbEntity
  8
profile
  6
AUSGEZOGEN
 62
     5
420
      255
370
    18
100
AcDbCircle
 10
391.801078240762
 20
227.214161603945
 30
0.0
 40
9.524999999999999
100
AcDbArc
 50
0.0
 51
90.0
  0
LINE
  5
289
330
170
100
AcDbEntity
  8
profile
  6
AUSGEZOGEN
 62
     5
420
      255
370
    18
100
AcDbLine
 10
271.948460008061
 20
211.758396998076
 30
0.0
 11
391.801078240762
 21
211.758396998076
 31
0.0
  0
ARC
  5
28A
330
170
100
AcDbEntity
  8
profile
  6
AUSGEZOGEN
 62
     5
420
      255
370
    18
100
AcDbCircle
 10
391.801078240762
 20
221.283396998076
 30
0.0
 40
9.524999999999999
100
AcDbArc
 50
270.0
 51
0.0
  0
ARC
  5
28B
330
170
100
AcDbEntity
  8
profile
  6
AUSGEZOGEN
 62
     5
420
      255
370
    18
100
AcDbCircle
 10
271.948460008061
 20
221.283396998076
 30
0.0
 40
9.524999999999999
100
AcDbArc
 50
180.0
 51
270.0
  0
LINE
  5
28C
330
170
100
AcDbEntity
  8
profile
  6
AUSGEZOGEN
 62
     5
420
      255
370
    18
100
AcDbLine
 10
389.608432039185
 20
-10.684552483844
 30
0.0
 11
389.608432039185
 21
0.511508498577
 31
0.0
  0
WIPEOUT
  5
28D
330
170
100
AcDbEntity
  8
profile
  6
AUSGEZOGEN
 62
     5
420
      255
370
    18
 92
      308
310
34010000070000000C0000000E000000120000000C00000016000000000000C20C00000014000000010000006C00000007000000040000007EF24278609B6E40585E06AA142C11C00000000000000000FF43C38166397040585E06AA142C11C00000000000000000FF43C38166397040A0216534247BCC3F00000000000000
310
007EF24278609B6E40A0216534247BCC3F00000000000000000C0000000E000000050000000C00000016000000FF0000C28400000006000000050000007EF24278609B6E40585E06AA142C11C00000000000000000FF43C38166397040585E06AA142C11C00000000000000000FF43C38166397040A0216534247BCC3F0000
310
0000000000007EF24278609B6E40A0216534247BCC3F00000000000000007EF24278609B6E40585E06AA142C11C00000000000000000
100
AcDbWipeout
 90
        0
 10
244.855526095158
 20
-4.293047577513
 30
0.0
 11
14.73199999999997
 21
0.0
 31
0.0
 12
0.0
 22
14.73199999999997
 32
0.0
 13
1.0
 23
1.0
340
0
 70
     7
280
     1
281
    50
282
    50
283
     0
360
0
 71
     2
 91
        5
 14
-0.5
 24
0.5
 14
0.5
 24
0.5
 14
0.5
 24
0.193486590038
 14
-0.5
 24
0.193486590038
 14
-0.5
 24
0.5
  0
TEXT
  5
28E
330
170
100
AcDbEntity
  8
profile
  6
AUSGEZOGEN
 62
     5
420
      255
370
    18
100
AcDbText
 10
244.855526095158
 20
-3.446380910847
 30
0.0
 40
2.822222222222
  1
Customer
 41
0.862809917355
  7
Lucida Calligraphy
 72
     5
 11
259.587526095158
 21
-3.446380910847
 31
0.0
100
AcDbText
  0
WIPEOUT
  5
28F
330
170
100
AcDbEntity
  8
profile
  6
AUSGEZOGEN
 62
     5
420
      255
370
    18
 92
      308
310
34010000070000000C0000000E000000120000000C00000016000000000000C20C00000014000000010000006C0000000700000004000000BE2D8BC8D2BD71400048FFC1B47612C0000000000000000052FF667B293D72400048FFC1B47612C0000000000000000052FF667B293D7240C0267095BDB1B9BF00000000000000
310
00BE2D8BC8D2BD7140C0267095BDB1B9BF00000000000000000C0000000E000000050000000C00000016000000FF0000C2840000000600000005000000BE2D8BC8D2BD71400048FFC1B47612C0000000000000000052FF667B293D72400048FFC1B47612C0000000000000000052FF667B293D7240C0267095BDB1B9BF0000
310
000000000000BE2D8BC8D2BD7140C0267095BDB1B9BF0000000000000000BE2D8BC8D2BD71400048FFC1B47612C00000000000000000
100
AcDbWipeout
 90
        0
 10
283.863960784594
 20
-4.615923911291
 30
0.0
 11
7.958666666666659
 21
0.0
 31
0.0
 12
0.0
 22
7.958666666666659
 32
0.0
 13
1.0
 23
1.0
340
0
 70
     7
280
     1
281
    50
282
    50
283
     0
360
0
 71
     2
 91
        5
 14
-0.5
 24
0.5
 14
0.5
 24
0.5
 14
0.5
 24
-0.067375886525
 14
-0.5
 24
-0.067375886525
 14
-0.5
 24
0.5
  0
TEXT
  5
290
330
170
100
AcDbEntity
  8
profile
  6
AUSGEZOGEN
 62
     5
420
      255
370
    18
100
AcDbText
 10
283.863960784594
 20
-3.769257244625
 30
0.0
 40
2.822222222222
  1
Scale
 41
0.807791463764
  7
Lucida Calligraphy
 72
     5
 11
291.822627451261
 21
-3.769257244625
 31
0.0
100
AcDbText
  0
WIPEOUT
  5
291
330
170
100
AcDbEntity
  8
profile
  6
AUSGEZOGEN
 62
     5
420
      255
370
    18
 92
      308
310
34010000070000000C0000000E000000120000000C00000016000000000000C20C00000014000000010000006C0000000700000004000000EC3F4A0720377540407D1D29745511C000000000000000008692BBFD01D97540407D1D29745511C000000000000000008692BBFD01D97540A0448151344FC73F00000000000000
310
00EC3F4A0720377540A0448151344FC73F00000000000000000C0000000E000000050000000C00000016000000FF0000C2840000000600000005000000EC3F4A0720377540407D1D29745511C000000000000000008692BBFD01D97540407D1D29745511C000000000000000008692BBFD01D97540A0448151344FC73F0000
310
000000000000EC3F4A0720377540A0448151344FC73F0000000000000000EC3F4A0720377540407D1D29745511C00000000000000000
100
AcDbWipeout
 90
        0
 10
339.445319452322
 20
-4.333450930047
 30
0.0
 11
10.11766666666665
 21
0.0
 31
0.0
 12
0.0
 22
10.11766666666665
 32
0.0
 13
1.0
 23
1.0
340
0
 70
     7
280
     1
281
    50
282
    50
283
     0
360
0
 71
     2
 91
        5
 14
-0.5
 24
0.5
 14
0.5
 24
0.5
 14
0.5
 24
0.05369595537
 14
-0.5
 24
0.05369595537
 14
-0.5
 24
0.5
  0
TEXT
  5
292
330
170
100
AcDbEntity
  8
profile
  6
AUSGEZOGEN
 62
     5
420
      255
370
    18
100
AcDbText
 10
339.445319452322
 20
-3.48678426338
 30
0.0
 40
2.822222222222
  1
Part #
 41
0.962674543502
  7
Lucida Calligraphy
 72
     5
 11
349.562986118989
 21
-3.48678426338
 31
0.0
100
AcDbText
  0
WIPEOUT
  5
293
330
170
100
AcDbEntity
  8
profile
  6
AUSGEZOGEN
 62
     5
420
      255
370
    18
 92
      308
310
34010000070000000C0000000E000000120000000C00000016000000000000C20C00000014000000010000006C0000000700000004000000CEFD30347C5A7940E027F9660D0512C00000000000000000F8129853BAD37940E027F9660D0512C00000000000000000F8129853BAD37940000ABF60C9C0853F00000000000000
310
00CEFD30347C5A7940000ABF60C9C0853F00000000000000000C0000000E000000050000000C00000016000000FF0000C2840000000600000005000000CEFD30347C5A7940E027F9660D0512C00000000000000000F8129853BAD37940E027F9660D0512C00000000000000000F8129853BAD37940000ABF60C9C0853F0000
310
000000000000CEFD30347C5A7940000ABF60C9C0853F0000000000000000CEFD30347C5A7940E027F9660D0512C00000000000000000
100
AcDbWipeout
 90
        0
 10
405.655323211072
 20
-4.504933937986
 30
0.0
 11
7.577666666666687
 21
0.0
 31
0.0
 12
0.0
 22
7.577666666666687
 32
0.0
 13
1.0
 23
1.0
340
0
 70
     7
280
     1
281
    50
282
    50
283
     0
360
0
 71
     2
 91
        5
 14
-0.5
 24
0.5
 14
0.5
 24
0.5
 14
0.5
 24
-0.095903165736
 14
-0.5
 24
-0.095903165736
 14
-0.5
 24
0.5
  0
TEXT
  5
294
330
170
100
AcDbEntity
  8
profile
  6
AUSGEZOGEN
 62
     5
420
      255
370
    18
100
AcDbText
 10
405.655323211072
 20
-3.658267271319
 30
0.0
 40
2.822222222222
  1
Date
 41
0.91078697422
  7
Lucida Calligraphy
 72
     5
 11
413.232989877738
 21
-3.658267271319
 31
0.0
100
AcDbText
  0
LINE
  5
295
330
170
100
AcDbEntity
  8
profile
  6
AUSGEZOGEN
 62
     5
420
      255
370
    18
100
AcDbLine
 10
276.367859173288
 20
-10.684552483844
 30
0.0
 11
276.367859173288
 21
0.511508498577
 31
0.0
  0
LINE
  5
296
330
170
100
AcDbEntity
  8
profile
  6
AUSGEZOGEN
 62
     5
420
      255
370
    18
100
AcDbLine
 10
299.526633942772
 20
-10.684552483844
 30
0.0
 11
299.526633942772
 21
0.511508498577
 31
0.0
  0
TEXT
  5
297
330
170
100
AcDbEntity
  8
profile
  6
AUSGEZOGEN
 62
    18
420
        0
370
    18
100
AcDbText
 10
327.268111612419
 20
2.827333914617
 30
0.0
 40
4.181939959382
  1
 Yes   No       Please Circle One
 41
1.180002116037
  7
Lucida Calligraphy
 72
     5
 11
424.506335726315
 21
2.827333914617
 31
0.0
100
AcDbText
  0
WIPEOUT
  5
298
330
170
100
AcDbEntity
  8
profile
  6
AUSGEZOGEN
 62
    18
420
        0
370
    18
 92
      260
310
04010000030000000C00000014000000010000006C00000007000000040000000D59F81D8B3472409A70431A5F076B400000000000000000E8DDA2CCFE4372409A70431A5F076B400000000000000000E8DDA2CCFE4372401EBADB6471326B4000000000000000000D59F81D8B3472401EBADB6471326B4000000000000000
310
008400000006000000050000000D59F81D8B3472409A70431A5F076B400000000000000000E8DDA2CCFE4372409A70431A5F076B400000000000000000E8DDA2CCFE4372401EBADB6471326B4000000000000000000D59F81D8B3472401EBADB6471326B4000000000000000000D59F81D8B3472409A70431A5F076B400000
310
000000000000
100
AcDbWipeout
 90
        0
 10
291.283964128598
 20
216.23035920307
 30
0.0
 11
1.345982835231695
 21
0.0
 31
0.0
 12
0.0
 22
1.345982835231695
 32
0.0
 13
1.0
 23
1.0
340
0
 70
     7
280
     1
281
    50
282
    50
283
     0
360
0
 71
     2
 91
        5
 14
-0.5
 24
0.5
 14
0.217500046182
 24
0.5
 14
0.217500046182
 24
-0.5
 14
-0.5
 24
-0.5
 14
-0.5
 24
0.5
  0
TEXT
  5
299
330
170
100
AcDbEntity
  8
profile
  6
AUSGEZOGEN
 62
    18
420
        0
370
    18
100
AcDbText
 10
291.283964128598
 20
216.482730984676
 30
0.0
 40
0.84123927202
  1
R
 41
1.138888962193
  7
Arial
 72
     5
 11
292.249706875037
 21
216.482730984676
 31
0.0
100
AcDbText
  0
CIRCLE
  5
29A
330
170
100
AcDbEntity
  8
profile
  6
AUSGEZOGEN
 62
    18
420
        0
370
    18
100
AcDbCircle
 10
291.75519713316
 20
216.908875221235
 30
0.0
 40
1.0541
  0
WIPEOUT
  5
29B
330
170
100
AcDbEntity
  8
profile
  6
AUSGEZOGEN
 62
     1
420
 16711680
370
    18
 92
      308
310
34010000070000000C0000000E000000120000000C00000016000000000000C20C00000014000000010000006C0000000700000004000000E0D8AA0C470F6F40660533C99A0323C00000000000000000706CC5671E2D7040660533C99A0323C00000000000000000706CC5671E2D7040CA48FF579E410FC000000000000000
310
00E0D8AA0C470F6F40CA48FF579E410FC000000000000000000C0000000E000000010000000C000000160000000000FFC2840000000600000005000000E0D8AA0C470F6F40660533C99A0323C00000000000000000706CC5671E2D7040660533C99A0323C00000000000000000706CC5671E2D7040CA48FF579E410FC00000
310
000000000000E0D8AA0C470F6F40CA48FF579E410FC00000000000000000E0D8AA0C470F6F40660533C99A0323C00000000000000000
100
AcDbWipeout
 90
        0
 10
248.477423032461
 20
-9.507040297964
 30
0.0
 11
10.3425001502037
 21
0.0
 31
0.0
 12
0.0
 22
10.3425001502037
 32
0.0
 13
1.0
 23
1.0
340
0
 70
     7
280
     1
281
    50
282
    50
283
     0
360
0
 71
     2
 91
        5
 14
-0.5
 24
0.5
 14
0.5
 24
0.5
 14
0.5
 24
-0.041455152881
 14
-0.5
 24
-0.041455152881
 14
-0.5
 24
0.5
  0
TEXT
  5
29C
330
170
100
AcDbEntity
  8
profile
  6
AUSGEZOGEN
 62
     1
420
 16711680
370
    18
100
AcDbText
 10
248.477423032461
 20
-8.457040297964
 30
0.0
 40
3.5
  1
B P
 41
1.313333352407
  7
Arial
 72
     5
 11
258.819923182665
 21
-8.457040297964
 31
0.0
100
AcDbText
  0
WIPEOUT
  5
29D
330
170
100
AcDbEntity
  8
profile
  6
AUSGEZOGEN
 62
     7
420
 16777215
370
    18
 92
      308
310
34010000070000000C0000000E000000120000000C00000016000000000000C20C00000014000000010000006C000000070000000400000070CB72AA673A6E408924D6B2DBBF5D400000000000000000CC802F304C237A408924D6B2DBBF5D400000000000000000CC802F304C237A40EF8A3C1942265F4000000000000000
310
0070CB72AA673A6E40EF8A3C1942265F4000000000000000000C0000000E000000070000000C00000016000000FFFFFFC284000000060000000500000070CB72AA673A6E408924D6B2DBBF5D400000000000000000CC802F304C237A408924D6B2DBBF5D400000000000000000CC802F304C237A40EF8A3C1942265F400000
310
00000000000070CB72AA673A6E40EF8A3C1942265F40000000000000000070CB72AA673A6E408924D6B2DBBF5D400000000000000000
100
AcDbWipeout
 90
        0
 10
241.825154518326
 20
118.997784337162
 30
0.0
 11
176.3809461225039
 21
0.0
 31
0.0
 12
0.0
 22
176.3809461225039
 32
0.0
 13
1.0
 23
1.0
340
0
 70
     7
280
     1
281
    50
282
    50
283
     0
360
0
 71
     2
 91
        5
 14
-0.5
 24
0.5
 14
0.5
 24
0.5
 14
0.5
 24
0.46825053883
 14
-0.5
 24
0.46825053883
 14
-0.5
 24
0.5
  0
TEXT
  5
29E
330
170
100
AcDbEntity
  8
profile
  6
AUSGEZOGEN
 62
     7
420
 16777215
370
    18
100
AcDbText
 10
241.825154518326
 20
120.047784337162
 30
0.0
 40
3.5
  1
Please Look In The Bevels Category  For a Universal Bevel
 41
1.370460024883
  7
Arial
 72
     5
 11
418.20610064083
 21
120.047784337162
 31
0.0
100
AcDbText
  0
ENDBLK
  5
172
330
170
100
AcDbEntity
  8
0
100
AcDbBlockEnd
  0
BLOCK
  5
187
330
186
100
AcDbEntity
  8
0
100
AcDbBlockBegin
  2
DimBlk_nNn01
 70
     0
 10
0.0
 20
0.0
 30
0.0
  3
DimBlk_nNn01
  1
DimBlk_nNn01
  0
LINE
  5
189
330
186
100
AcDbEntity
  8
profile
  6
AUSGEZOGEN
 62
    16
420
  8388608
370
    18
100
AcDbLine
 10
424.283060874469
 20
197.173980223348
 30
0.0
 11
424.983060874469
 21
200.673980223348
 31
0.0
  0
LINE
  5
18A
330
186
100
AcDbEntity
  8
profile
  6
AUSGEZOGEN
 62
    16
420
  8388608
370
    18
100
AcDbLine
 10
424.983060874469
 20
200.673980223348
 30
0.0
 11
425.683060874469
 21
197.173980223348
 31
0.0
  0
LINE
  5
18B
330
186
100
AcDbEntity
  8
profile
  6
AUSGEZOGEN
 62
    16
420
  8388608
370
    18
100
AcDbLine
 10
425.683060874469
 20
150.247637628031
 30
0.0
 11
424.983060874469
 21
146.747637628031
 31
0.0
  0
LINE
  5
18C
330
186
100
AcDbEntity
  8
profile
  6
AUSGEZOGEN
 62
    16
420
  8388608
370
    18
100
AcDbLine
 10
424.983060874469
 20
146.747637628031
 30
0.0
 11
424.283060874469
 21
150.247637628031
 31
0.0
  0
LINE
  5
18D
330
186
100
AcDbEntity
  8
profile
  6
AUSGEZOGEN
 62
    16
420
  8388608
370
    18
100
AcDbLine
 10
424.983060874469
 20
146.747637628031
 30
0.0
 11
424.983060874469
 21
200.673980223348
 31
0.0
  0
LINE
  5
18E
330
186
100
AcDbEntity
  8
profile
  6
AUSGEZOGEN
 62
     5
420
      255
370
    18
100
AcDbLine
 10
422.983060874469
 20
146.747637628031
 30
0.0
 11
426.983060874469
 21
146.747637628031
 31
0.0
  0
LINE
  5
18F
330
186
100
AcDbEntity
  8
profile
  6
AUSGEZOGEN
 62
     5
420
      255
370
    18
100
AcDbLine
 10
422.983060874469
 20
200.673980223348
 30
0.0
 11
426.983060874469
 21
200.673980223348
 31
0.0
  0
TEXT
  5
190
330
186
100
AcDbEntity
  8
profile
  6
AUSGEZOGEN
 62
    16
420
  8388608
370
    18
100
AcDbText
 10
423.983060874469
 20
165.365058814348
 30
0.0
 40
3.5
  1
2.125
 50
90.0
 41
1.36569303082
  7
Arial
 72
     5
 11
423.983060874469
 21
182.056559037031
 31
0.0
100
AcDbText
  0
ENDBLK
  5
188
330
186
100
AcDbEntity
  8
0
100
AcDbBlockEnd
  0
BLOCK
  5
193
330
192
100
AcDbEntity
  8
0
100
AcDbBlockBegin
  2
DimBlk_nNn02
 70
     0
 10
0.0
 20
0.0
 30
0.0
  3
DimBlk_nNn02
  1
DimBlk_nNn02
  0
LINE
  5
195
330
192
100
AcDbEntity
  8
profile
  6
AUSGEZOGEN
 62
    16
420
  8388608
370
    18
100
AcDbLine
 10
417.063731563751
 20
203.96140234149
 30
0.0
 11
420.563731563751
 21
203.26140234149
 31
0.0
  0
LINE
  5
196
330
192
100
AcDbEntity
  8
profile
  6
AUSGEZOGEN
 62
    16
420
  8388608
370
    18
100
AcDbLine
 10
420.563731563751
 20
203.26140234149
 30
0.0
 11
417.063731563751
 21
202.56140234149
 31
0.0
  0
LINE
  5
197
330
192
100
AcDbEntity
  8
profile
  6
AUSGEZOGEN
 62
    16
420
  8388608
370
    18
100
AcDbLine
 10
370.227000706239
 20
202.56140234149
 30
0.0
 11
366.727000706239
 21
203.26140234149
 31
0.0
  0
LINE
  5
198
330
192
100
AcDbEntity
  8
profile
  6
AUSGEZOGEN
 62
    16
420
  8388608
370
    18
100
AcDbLine
 10
366.727000706239
 20
203.26140234149
 30
0.0
 11
370.227000706239
 21
203.96140234149
 31
0.0
  0
LINE
  5
199
330
192
100
AcDbEntity
  8
profile
  6
AUSGEZOGEN
 62
    16
420
  8388608
370
    18
100
AcDbLine
 10
366.727000706239
 20
203.26140234149
 30
0.0
 11
420.563731563751
 21
203.26140234149
 31
0.0
  0
LINE
  5
19A
330
192
100
AcDbEntity
  8
profile
  6
AUSGEZOGEN
 62
     5
420
      255
370
    18
100
AcDbLine
 10
366.727000706239
 20
201.26140234149
 30
0.0
 11
366.727000706239
 21
205.26140234149
 31
0.0
  0
LINE
  5
19B
330
192
100
AcDbEntity
  8
profile
  6
AUSGEZOGEN
 62
     5
420
      255
370
    18
100
AcDbLine
 10
420.563731563751
 20
201.26140234149
 30
0.0
 11
420.563731563751
 21
205.26140234149
 31
0.0
  0
TEXT
  5
19C
330
192
100
AcDbEntity
  8
profile
  6
AUSGEZOGEN
 62
    16
420
  8388608
370
    18
100
AcDbText
 10
385.299616023654
 20
204.26140234149
 30
0.0
 40
3.5
  1
2.125
 41
1.36569303082
  7
Arial
 72
     5
 11
401.991116246337
 21
204.26140234149
 31
0.0
100
AcDbText
  0
ENDBLK
  5
194
330
192
100
AcDbEntity
  8
0
100
AcDbBlockEnd
  0
BLOCK
  5
1AF
330
1AE
100
AcDbEntity
  8
0
100
AcDbBlockBegin
  2
DimBlk_nNn03
 70
     0
 10
0.0
 20
0.0
 30
0.0
  3
DimBlk_nNn03
  1
DimBlk_nNn03
  0
LINE
  5
1B1
330
1AE
100
AcDbEntity
  8
profile
  6
AUSGEZOGEN
 62
     5
420
      255
370
    18
100
AcDbLine
 10
294.963887959407
 20
111.758425276758
 30
0.0
 11
291.463887959407
 21
112.458425276758
 31
0.0
  0
LINE
  5
1B2
330
1AE
100
AcDbEntity
  8
profile
  6
AUSGEZOGEN
 62
     5
420
      255
370
    18
100
AcDbLine
 10
291.463887959407
 20
112.458425276758
 30
0.0
 11
294.963887959407
 21
113.158425276758
 31
0.0
  0
LINE
  5
1B3
330
1AE
100
AcDbEntity
  8
profile
  6
AUSGEZOGEN
 62
     5
420
      255
370
    18
100
AcDbLine
 10
364.163887959407
 20
113.158425276758
 30
0.0
 11
367.663887959407
 21
112.458425276758
 31
0.0
  0
LINE
  5
1B4
330
1AE
100
AcDbEntity
  8
profile
  6
AUSGEZOGEN
 62
     5
420
      255
370
    18
100
AcDbLine
 10
367.663887959407
 20
112.458425276758
 30
0.0
 11
364.163887959407
 21
111.758425276758
 31
0.0
  0
LINE
  5
1B5
330
1AE
100
AcDbEntity
  8
profile
  6
AUSGEZOGEN
 62
     5
420
      255
370
    18
100
AcDbLine
 10
367.663887959407
 20
112.458425276758
 30
0.0
 11
291.463887959407
 21
112.458425276758
 31
0.0
  0
LINE
  5
1B6
330
1AE
100
AcDbEntity
  8
profile
  6
AUSGEZOGEN
 62
     5
420
      255
370
    18
100
AcDbLine
 10
367.663887959407
 20
110.458425276758
 30
0.0
 11
367.663887959407
 21
114.458425276758
 31
0.0
  0
LINE
  5
1B7
330
1AE
100
AcDbEntity
  8
profile
  6
AUSGEZOGEN
 62
     5
420
      255
370
    18
100
AcDbLine
 10
291.463887959407
 20
110.458425276758
 30
0.0
 11
291.463887959407
 21
114.458425276758
 31
0.0
  0
TEXT
  5
1B8
330
1AE
100
AcDbEntity
  8
profile
  6
AUSGEZOGEN
 62
     5
420
      255
370
    18
100
AcDbText
 10
328.020387929366
 20
113.458425276758
 30
0.0
 40
3.5
  1
3
 41
1.136597960266
  7
Arial
 72
     5
 11
331.107387989448
 21
113.458425276758
 31
0.0
100
AcDbText
  0
ENDBLK
  5
1B0
330
1AE
100
AcDbEntity
  8
0
100
AcDbBlockEnd
  0
BLOCK
  5
1BC
330
1BB
100
AcDbEntity
  8
0
100
AcDbBlockBegin
  2
DimBlk_nNn04
 70
     0
 10
0.0
 20
0.0
 30
0.0
  3
DimBlk_nNn04
  1
DimBlk_nNn04
  0
LINE
  5
1BE
330
1BB
100
AcDbEntity
  8
profile
  6
AUSGEZOGEN
 62
    18
420
        0
370
    18
100
AcDbLine
 10
287.768752500534
 20
94.387146054017
 30
0.0
 11
287.068752500534
 21
90.887146054017
 31
0.0
  0
LINE
  5
1BF
330
1BB
100
AcDbEntity
  8
profile
  6
AUSGEZOGEN
 62
    18
420
        0
370
    18
100
AcDbLine
 10
287.068752500534
 20
90.887146054017
 30
0.0
 11
286.368752500534
 21
94.387146054017
 31
0.0
  0
LINE
  5
1C0
330
1BB
100
AcDbEntity
  8
profile
  6
AUSGEZOGEN
 62
    18
420
        0
370
    18
100
AcDbLine
 10
286.368752500534
 20
99.756734320294
 30
0.0
 11
287.068752500534
 21
103.256734320294
 31
0.0
  0
LINE
  5
1C1
330
1BB
100
AcDbEntity
  8
profile
  6
AUSGEZOGEN
 62
    18
420
        0
370
    18
100
AcDbLine
 10
287.068752500534
 20
103.256734320294
 30
0.0
 11
287.768752500534
 21
99.756734320294
 31
0.0
  0
LINE
  5
1C2
330
1BB
100
AcDbEntity
  8
profile
  6
AUSGEZOGEN
 62
    18
420
        0
370
    18
100
AcDbLine
 10
287.068752500534
 20
103.256734320294
 30
0.0
 11
287.068752500534
 21
90.887146054017
 31
0.0
  0
LINE
  5
1C3
330
1BB
100
AcDbEntity
  8
profile
  6
AUSGEZOGEN
 62
     5
420
      255
370
    18
100
AcDbLine
 10
289.068752500534
 20
103.256734320294
 30
0.0
 11
285.068752500534
 21
103.256734320294
 31
0.0
  0
LINE
  5
1C4
330
1BB
100
AcDbEntity
  8
profile
  6
AUSGEZOGEN
 62
     5
420
      255
370
    18
100
AcDbLine
 10
289.068752500534
 20
90.887146054017
 30
0.0
 11
285.068752500534
 21
90.887146054017
 31
0.0
  0
TEXT
  5
1C5
330
1BB
100
AcDbEntity
  8
profile
  6
AUSGEZOGEN
 62
    18
420
        0
370
    18
100
AcDbText
 10
286.068752500534
 20
88.726190075814
 30
0.0
 40
3.5
  1
0.487
 50
90.0
 41
1.36569303082
  7
Arial
 72
     5
 11
286.068752500534
 21
105.417690298497
 31
0.0
100
AcDbText
  0
ENDBLK
  5
1BD
330
1BB
100
AcDbEntity
  8
0
100
AcDbBlockEnd
  0
BLOCK
  5
1C8
330
1C7
100
AcDbEntity
  8
0
100
AcDbBlockBegin
  2
DimBlk_nNn05
 70
     0
 10
0.0
 20
0.0
 30
0.0
  3
DimBlk_nNn05
  1
DimBlk_nNn05
  0
LINE
  5
1CA
330
1C7
100
AcDbEntity
  8
profile
  6
AUSGEZOGEN
 62
     5
420
      255
370
    18
100
AcDbLine
 10
277.110697093557
 20
90.585794940452
 30
0.0
 11
277.810697093557
 21
94.085794940452
 31
0.0
  0
LINE
  5
1CB
330
1C7
100
AcDbEntity
  8
profile
  6
AUSGEZOGEN
 62
     5
420
      255
370
    18
100
AcDbLine
 10
277.810697093557
 20
94.085794940452
 30
0.0
 11
278.510697093557
 21
90.585794940452
 31
0.0
  0
LINE
  5
1CC
330
1C7
100
AcDbEntity
  8
profile
  6
AUSGEZOGEN
 62
     5
420
      255
370
    18
100
AcDbLine
 10
278.510697093557
 20
86.106170564213
 30
0.0
 11
277.810697093557
 21
82.606170564213
 31
0.0
  0
LINE
  5
1CD
330
1C7
100
AcDbEntity
  8
profile
  6
AUSGEZOGEN
 62
     5
420
      255
370
    18
100
AcDbLine
 10
277.810697093557
 20
82.606170564213
 30
0.0
 11
277.110697093557
 21
86.106170564213
 31
0.0
  0
LINE
  5
1CE
330
1C7
100
AcDbEntity
  8
profile
  6
AUSGEZOGEN
 62
     5
420
      255
370
    18
100
AcDbLine
 10
277.810697093557
 20
82.606170564213
 30
0.0
 11
277.810697093557
 21
94.085794940452
 31
0.0
  0
LINE
  5
1CF
330
1C7
100
AcDbEntity
  8
profile
  6
AUSGEZOGEN
 62
     5
420
      255
370
    18
100
AcDbLine
 10
275.810697093557
 20
82.606170564213
 30
0.0
 11
279.810697093557
 21
82.606170564213
 31
0.0
  0
LINE
  5
1D0
330
1C7
100
AcDbEntity
  8
profile
  6
AUSGEZOGEN
 62
     5
420
      255
370
    18
100
AcDbLine
 10
275.810697093557
 20
94.085794940452
 30
0.0
 11
279.810697093557
 21
94.085794940452
 31
0.0
  0
TEXT
  5
1D1
330
1C7
100
AcDbEntity
  8
profile
  6
AUSGEZOGEN
 62
     5
420
      255
370
    18
100
AcDbText
 10
276.810697093557
 20
80.000232640991
 30
0.0
 40
3.5
  1
0.452
 50
90.0
 41
1.36569303082
  7
Arial
 72
     5
 11
276.810697093557
 21
96.691732863674
 31
0.0
100
AcDbText
  0
ENDBLK
  5
1C9
330
1C7
100
AcDbEntity
  8
0
100
AcDbBlockEnd
  0
BLOCK
  5
1D5
330
1D4
100
AcDbEntity
  8
0
100
AcDbBlockBegin
  2
DimBlk_nNn06
 70
     0
 10
0.0
 20
0.0
 30
0.0
  3
DimBlk_nNn06
  1
DimBlk_nNn06
  0
LINE
  5
1D7
330
1D4
100
AcDbEntity
  8
profile
  6
AUSGEZOGEN
 62
    18
420
        0
370
    18
100
AcDbLine
 10
373.085036776071
 20
99.756734320294
 30
0.0
 11
373.785036776071
 21
103.256734320294
 31
0.0
  0
LINE
  5
1D8
330
1D4
100
AcDbEntity
  8
profile
  6
AUSGEZOGEN
 62
    18
420
        0
370
    18
100
AcDbLine
 10
373.785036776071
 20
103.256734320294
 30
0.0
 11
374.485036776071
 21
99.756734320294
 31
0.0
  0
LINE
  5
1D9
330
1D4
100
AcDbEntity
  8
profile
  6
AUSGEZOGEN
 62
    18
420
        0
370
    18
100
AcDbLine
 10
374.485036776071
 20
94.387146054017
 30
0.0
 11
373.785036776071
 21
90.887146054017
 31
0.0
  0
LINE
  5
1DA
330
1D4
100
AcDbEntity
  8
profile
  6
AUSGEZOGEN
 62
    18
420
        0
370
    18
100
AcDbLine
 10
373.785036776071
 20
90.887146054017
 30
0.0
 11
373.085036776071
 21
94.387146054017
 31
0.0
  0
LINE
  5
1DB
330
1D4
100
AcDbEntity
  8
profile
  6
AUSGEZOGEN
 62
    18
420
        0
370
    18
100
AcDbLine
 10
373.785036776071
 20
90.887146054017
 30
0.0
 11
373.785036776071
 21
103.256734320294
 31
0.0
  0
LINE
  5
1DC
330
1D4
100
AcDbEntity
  8
profile
  6
AUSGEZOGEN
 62
     5
420
      255
370
    18
100
AcDbLine
 10
371.785036776071
 20
90.887146054017
 30
0.0
 11
375.785036776071
 21
90.887146054017
 31
0.0
  0
LINE
  5
1DD
330
1D4
100
AcDbEntity
  8
profile
  6
AUSGEZOGEN
 62
     5
420
      255
370
    18
100
AcDbLine
 10
371.785036776071
 20
103.256734320294
 30
0.0
 11
375.785036776071
 21
103.256734320294
 31
0.0
  0
TEXT
  5
1DE
330
1D4
100
AcDbEntity
  8
profile
  6
AUSGEZOGEN
 62
    18
420
        0
370
    18
100
AcDbText
 10
372.785036776071
 20
88.726190075814
 30
0.0
 40
3.5
  1
0.487
 50
90.0
 41
1.36569303082
  7
Arial
 72
     5
 11
372.785036776071
 21
105.417690298497
 31
0.0
100
AcDbText
  0
ENDBLK
  5
1D6
330
1D4
100
AcDbEntity
  8
0
100
AcDbBlockEnd
  0
BLOCK
  5
1E1
330
1E0
100
AcDbEntity
  8
0
100
AcDbBlockBegin
  2
DimBlk_nNn07
 70
     0
 10
0.0
 20
0.0
 30
0.0
  3
DimBlk_nNn07
  1
DimBlk_nNn07
  0
LINE
  5
1E3
330
1E0
100
AcDbEntity
  8
profile
  6
AUSGEZOGEN
 62
     5
420
      255
370
    18
100
AcDbLine
 10
268.678717947817
 20
86.106534320294
 30
0.0
 11
267.978717947817
 21
82.606534320294
 31
0.0
  0
LINE
  5
1E4
330
1E0
100
AcDbEntity
  8
profile
  6
AUSGEZOGEN
 62
     5
420
      255
370
    18
100
AcDbLine
 10
267.978717947817
 20
82.606534320294
 30
0.0
 11
267.278717947817
 21
86.106534320294
 31
0.0
  0
LINE
  5
1E5
330
1E0
100
AcDbEntity
  8
profile
  6
AUSGEZOGEN
 62
     5
420
      255
370
    18
100
AcDbLine
 10
267.278717947817
 20
99.756734320294
 30
0.0
 11
267.978717947817
 21
103.256734320294
 31
0.0
  0
LINE
  5
1E6
330
1E0
100
AcDbEntity
  8
profile
  6
AUSGEZOGEN
 62
     5
420
      255
370
    18
100
AcDbLine
 10
267.978717947817
 20
103.256734320294
 30
0.0
 11
268.678717947817
 21
99.756734320294
 31
0.0
  0
LINE
  5
1E7
330
1E0
100
AcDbEntity
  8
profile
  6
AUSGEZOGEN
 62
     5
420
      255
370
    18
100
AcDbLine
 10
267.978717947817
 20
103.256734320294
 30
0.0
 11
267.978717947817
 21
82.606534320294
 31
0.0
  0
LINE
  5
1E8
330
1E0
100
AcDbEntity
  8
profile
  6
AUSGEZOGEN
 62
     5
420
      255
370
    18
100
AcDbLine
 10
269.978717947817
 20
103.256734320294
 30
0.0
 11
265.978717947817
 21
103.256734320294
 31
0.0
  0
LINE
  5
1E9
330
1E0
100
AcDbEntity
  8
profile
  6
AUSGEZOGEN
 62
     5
420
      255
370
    18
100
AcDbLine
 10
269.978717947817
 20
82.606534320294
 30
0.0
 11
265.978717947817
 21
82.606534320294
 31
0.0
  0
TEXT
  5
1EA
330
1E0
100
AcDbEntity
  8
profile
  6
AUSGEZOGEN
 62
     5
420
      255
370
    18
100
AcDbText
 10
266.978717947817
 20
84.585884208953
 30
0.0
 40
3.5
  1
0.813
 50
90.0
 41
1.36569303082
  7
Arial
 72
     5
 11
266.978717947817
 21
101.277384431636
 31
0.0
100
AcDbText
  0
ENDBLK
  5
1E2
330
1E0
100
AcDbEntity
  8
0
100
AcDbBlockEnd
  0
BLOCK
  5
1F3
330
1F2
100
AcDbEntity
  8
0
100
AcDbBlockBegin
  2
DimBlk_nNn08
 70
     0
 10
0.0
 20
0.0
 30
0.0
  3
DimBlk_nNn08
  1
DimBlk_nNn08
  0
LINE
  5
1F5
330
1F2
100
AcDbEntity
  8
profile
  6
AUSGEZOGEN
 62
    18
420
        0
370
    18
100
AcDbLine
 10
287.302852375054
 20
81.776363001359
 30
0.0
 11
285.322953387732
 21
84.746211482342
 31
0.0
  0
LINE
  5
1F6
330
1F2
100
AcDbEntity
  8
profile
  6
AUSGEZOGEN
 62
    18
420
        0
370
    18
100
AcDbLine
 10
285.322953387732
 20
84.746211482342
 30
0.0
 11
288.292801868715
 21
82.76631249502
 31
0.0
  0
LINE
  5
1F7
330
1F2
100
AcDbEntity
  8
profile
  6
AUSGEZOGEN
 62
    18
420
        0
370
    18
100
AcDbLine
 10
292.057717436889
 20
79.001396926846
 30
0.0
 11
294.037616424212
 21
76.031548445862
 31
0.0
  0
LINE
  5
1F8
330
1F2
100
AcDbEntity
  8
profile
  6
AUSGEZOGEN
 62
    18
420
        0
370
    18
100
AcDbLine
 10
294.037616424212
 20
76.031548445862
 30
0.0
 11
291.067767943228
 21
78.011447433185
 31
0.0
  0
LINE
  5
1F9
330
1F2
100
AcDbEntity
  8
profile
  6
AUSGEZOGEN
 62
    18
420
        0
370
    18
100
AcDbLine
 10
294.037616424212
 20
76.031548445862
 30
0.0
 11
285.322953387732
 21
84.746211482342
 31
0.0
  0
LINE
  5
1FA
330
1F2
100
AcDbEntity
  8
profile
  6
AUSGEZOGEN
 62
     5
420
      255
370
    18
100
AcDbLine
 10
295.451829986585
 20
77.445762008236
 30
0.0
 11
292.623402861838
 21
74.617334883489
 31
0.0
  0
LINE
  5
1FB
330
1F2
100
AcDbEntity
  8
profile
  6
AUSGEZOGEN
 62
     5
420
      255
370
    18
100
AcDbLine
 10
286.737166950105
 20
86.160425044715
 30
0.0
 11
283.908739825359
 21
83.331997919969
 31
0.0
  0
WIPEOUT
  5
1FC
330
1F2
100
AcDbEntity
  8
profile
  6
AUSGEZOGEN
 62
    18
420
        0
370
    18
 92
      260
310
04010000030000000C00000014000000010000006C0000000700000004000000B094D8C1E5BB714065ED06A54F905540000000000000000060CB1DECA8807240A912F2FB427D524000000000000000003CC93C4104C07240140A6E50B07A534000000000000000008C92F71641FB7140D0E482F9BC8D564000000000000000
310
00840000000600000005000000B094D8C1E5BB714065ED06A54F905540000000000000000060CB1DECA8807240A912F2FB427D524000000000000000003CC93C4104C07240140A6E50B07A534000000000000000008C92F71641FB7140D0E482F9BC8D56400000000000000000B094D8C1E5BB714065ED06A54F9055400000
310
000000000000
100
AcDbWipeout
 90
        0
 10
283.743593069094
 20
73.957213388824
 30
0.0
 11
16.25744570868181
 21
0.0
 31
0.0
 12
0.0
 22
16.25744570868181
 32
0.0
 13
1.0
 23
1.0
340
0
 70
     7
280
     1
281
    50
282
    50
283
     0
360
0
 71
     2
 91
        5
 14
-0.5
 24
-0.256431727001
 14
0.256431727001
 24
0.5
 14
0.5
 24
0.256431727001
 14
-0.256431727001
 24
-0.5
 14
-0.5
 24
-0.256431727001
  0
TEXT
  5
1FD
330
1F2
100
AcDbEntity
  8
profile
  6
AUSGEZOGEN
 62
    18
420
        0
370
    18
100
AcDbText
 10
284.48605518934
 20
86.997323243107
 30
0.0
 40
3.5
  1
0.485
 50
315.0
 41
1.36569303082
  7
Arial
 72
     5
 11
296.288728184976
 21
75.194650247471
 31
0.0
100
AcDbText
  0
ENDBLK
  5
1F4
330
1F2
100
AcDbEntity
  8
0
100
AcDbBlockEnd
  0
BLOCK
  5
200
330
1FF
100
AcDbEntity
  8
0
100
AcDbBlockBegin
  2
DimBlk_nNn09
 70
     0
 10
0.0
 20
0.0
 30
0.0
  3
DimBlk_nNn09
  1
DimBlk_nNn09
  0
LINE
  5
202
330
1FF
100
AcDbEntity
  8
profile
  6
AUSGEZOGEN
 62
    18
420
        0
370
    18
100
AcDbLine
 10
368.67442164092
 20
77.360089347146
 30
0.0
 11
365.704573159936
 21
75.380190359824
 31
0.0
  0
LINE
  5
203
330
1FF
100
AcDbEntity
  8
profile
  6
AUSGEZOGEN
 62
    18
420
        0
370
    18
100
AcDbLine
 10
365.704573159936
 20
75.380190359824
 30
0.0
 11
367.684472147259
 21
78.350038840807
 31
0.0
  0
LINE
  5
204
330
1FF
100
AcDbEntity
  8
profile
  6
AUSGEZOGEN
 62
    18
420
        0
370
    18
100
AcDbLine
 10
371.436177392047
 20
82.101744085595
 30
0.0
 11
374.40602587303
 21
84.081643072918
 31
0.0
  0
LINE
  5
205
330
1FF
100
AcDbEntity
  8
profile
  6
AUSGEZOGEN
 62
    18
420
        0
370
    18
100
AcDbLine
 10
374.40602587303
 20
84.081643072918
 30
0.0
 11
372.426126885708
 21
81.111794591934
 31
0.0
  0
LINE
  5
206
330
1FF
100
AcDbEntity
  8
profile
  6
AUSGEZOGEN
 62
    18
420
        0
370
    18
100
AcDbLine
 10
374.40602587303
 20
84.081643072918
 30
0.0
 11
365.704573159936
 21
75.380190359824
 31
0.0
  0
LINE
  5
207
330
1FF
100
AcDbEntity
  8
profile
  6
AUSGEZOGEN
 62
     5
420
      255
370
    18
100
AcDbLine
 10
372.991812310657
 20
85.495856635291
 30
0.0
 11
375.820239435403
 21
82.667429510544
 31
0.0
  0
LINE
  5
208
330
1FF
100
AcDbEntity
  8
profile
  6
AUSGEZOGEN
 62
     5
420
      255
370
    18
100
AcDbLine
 10
364.290359597563
 20
76.794403922197
 30
0.0
 11
367.118786722309
 21
73.965976797451
 31
0.0
  0
WIPEOUT
  5
209
330
1FF
100
AcDbEntity
  8
profile
  6
AUSGEZOGEN
 62
    18
420
        0
370
    18
 92
      260
310
04010000030000000C00000014000000010000006C00000007000000040000005BAFAF7207C3764004C69694D472524000000000000000000BE6F49CCA877740C0A0AB3DE1855540000000000000000031E8D5476F4877402B9827924E835640000000000000000081B1901DAC8376406FBD12E94170534000000000000000
310
008400000006000000050000005BAFAF7207C3764004C69694D472524000000000000000000BE6F49CCA877740C0A0AB3DE1855540000000000000000031E8D5476F4877402B9827924E835640000000000000000081B1901DAC8376406FBD12E94170534000000000000000005BAFAF7207C3764004C69694D47252400000
310
000000000000
100
AcDbWipeout
 90
        0
 10
360.22952038308
 20
73.794224879493
 30
0.0
 11
16.25744570868176
 21
0.0
 31
0.0
 12
0.0
 22
16.25744570868176
 32
0.0
 13
1.0
 23
1.0
340
0
 70
     7
280
     1
281
    50
282
    50
283
     0
360
0
 71
     2
 91
        5
 14
-0.256431727001
 24
0.5
 14
0.5
 24
-0.256431727001
 14
0.256431727001
 24
-0.5
 14
-0.5
 24
0.256431727001
 14
-0.256431727001
 24
0.5
  0
TEXT
  5
20A
330
1FF
100
AcDbEntity
  8
profile
  6
AUSGEZOGEN
 62
    18
420
        0
370
    18
100
AcDbText
 10
363.446856237479
 20
74.536686999739
 30
0.0
 40
3.5
  1
0.484
 50
45.0
 41
1.36569303082
  7
Arial
 72
     5
 11
375.249529233115
 21
86.339359995375
 31
0.0
100
AcDbText
  0
ENDBLK
  5
201
330
1FF
100
AcDbEntity
  8
0
100
AcDbBlockEnd
  0
BLOCK
  5
20D
330
20C
100
AcDbEntity
  8
0
100
AcDbBlockBegin
  2
DimBlk_nNn010
 70
     0
 10
0.0
 20
0.0
 30
0.0
  3
DimBlk_nNn010
  1
DimBlk_nNn010
  0
LINE
  5
20F
330
20C
100
AcDbEntity
  8
profile
  6
AUSGEZOGEN
 62
    18
420
        0
370
    18
100
AcDbLine
 10
364.050663822465
 20
106.132454570946
 30
0.0
 11
367.600522891931
 21
105.844862632541
 31
0.0
  0
LINE
  5
210
330
20C
100
AcDbEntity
  8
profile
  6
AUSGEZOGEN
 62
    18
420
        0
370
    18
100
AcDbLine
 10
367.600522891931
 20
105.844862632541
 30
0.0
 11
364.214085456633
 21
104.742025367612
 31
0.0
  0
LINE
  5
211
330
20C
100
AcDbEntity
  8
profile
  6
AUSGEZOGEN
 62
    18
420
        0
370
    18
100
AcDbLine
 10
360.19821665133
 20
103.078598043744
 30
0.0
 11
357.02382006819
 21
101.463848877758
 31
0.0
  0
LINE
  5
212
330
20C
100
AcDbEntity
  8
profile
  6
AUSGEZOGEN
 62
    18
420
        0
370
    18
100
AcDbLine
 10
357.02382006819
 20
101.463848877758
 30
0.0
 11
359.330591278604
 21
104.177336507894
 31
0.0
  0
ARC
  5
213
330
20C
100
AcDbEntity
  8
profile
  6
AUSGEZOGEN
 62
    18
420
        0
370
    18
100
AcDbCircle
 10
367.600522891931
 20
90.887146054017
 30
0.0
 40
14.95771657852366
100
AcDbArc
 50
90.0
 51
135.0
  0
WIPEOUT
  5
214
330
20C
100
AcDbEntity
  8
profile
  6
AUSGEZOGEN
 62
    18
420
        0
370
    18
 92
      260
310
04010000030000000C00000014000000010000006C00000007000000040000004A3AA311DF55764003FA225831B2594000000000000000002ECA698622F17640C7DFFE1571B35A400000000000000000426F80AFD8CE76405C7C0F678FFE5B4000000000000000005EDFB93A95337640989633A94FFD5A4000000000000000
310
008400000006000000050000004A3AA311DF55764003FA225831B2594000000000000000002ECA698622F17640C7DFFE1571B35A400000000000000000426F80AFD8CE76405C7C0F678FFE5B4000000000000000005EDFB93A95337640989633A94FFD5A4000000000000000004A3AA311DF55764003FA225831B259400000
310
000000000000
100
AcDbWipeout
 90
        0
 10
355.223932958664
 20
102.784261736066
 30
0.0
 11
11.84699600904156
 21
0.0
 31
0.0
 12
0.0
 22
11.84699600904156
 32
0.0
 13
1.0
 23
1.0
340
0
 70
     7
280
     1
281
    50
282
    50
283
     0
360
0
 71
     2
 91
        5
 14
-0.319107964617
 24
0.5
 14
0.5
 24
0.160714372008
 14
0.319107964617
 24
-0.275997633138
 14
-0.5
 24
0.063287994854
 14
-0.319107964617
 24
0.5
  0
TEXT
  5
215
330
20C
100
AcDbEntity
  8
profile
  6
AUSGEZOGEN
 62
    18
420
        0
370
    18
100
AcDbText
 10
356.965142575926
 20
103.754335245203
 30
0.0
 40
3.5
  1
45%%d
 50
22.5
 41
1.327488170577
  7
Arial
 72
     5
 11
366.022395701978
 21
107.50597232786
 31
0.0
100
AcDbText
  0
ENDBLK
  5
20E
330
20C
100
AcDbEntity
  8
0
100
AcDbBlockEnd
  0
BLOCK
  5
218
330
217
100
AcDbEntity
  8
0
100
AcDbBlockBegin
  2
DimBlk_nNn011
 70
     0
 10
0.0
 20
0.0
 30
0.0
  3
DimBlk_nNn011
  1
DimBlk_nNn011
  0
LINE
  5
21A
330
217
100
AcDbEntity
  8
profile
  6
AUSGEZOGEN
 62
    18
420
        0
370
    18
100
AcDbLine
 10
298.958052738847
 20
103.403233655181
 30
0.0
 11
301.288047137286
 21
100.711305231896
 31
0.0
  0
LINE
  5
21B
330
217
100
AcDbEntity
  8
profile
  6
AUSGEZOGEN
 62
    18
420
        0
370
    18
100
AcDbLine
 10
301.288047137286
 20
100.711305231896
 30
0.0
 11
298.100309064801
 21
102.296763687385
 31
0.0
  0
LINE
  5
21C
330
217
100
AcDbEntity
  8
profile
  6
AUSGEZOGEN
 62
    18
420
        0
370
    18
100
AcDbLine
 10
294.839047592273
 20
103.647622419751
 30
0.0
 11
291.463887959407
 21
104.780605202285
 31
0.0
  0
LINE
  5
21D
330
217
100
AcDbEntity
  8
profile
  6
AUSGEZOGEN
 62
    18
420
        0
370
    18
100
AcDbLine
 10
291.463887959407
 20
104.780605202285
 30
0.0
 11
295.014923641243
 21
105.036531205597
 31
0.0
  0
ARC
  5
21E
330
217
100
AcDbEntity
  8
profile
  6
AUSGEZOGEN
 62
    18
420
        0
370
    18
100
AcDbCircle
 10
291.463887959407
 20
90.887146054017
 30
0.0
 40
13.89345914826836
100
AcDbArc
 50
45.0
 51
90.0
  0
WIPEOUT
  5
21F
330
217
100
AcDbEntity
  8
profile
  6
AUSGEZOGEN
 62
    18
420
        0
370
    18
 92
      260
310
04010000030000000C00000014000000010000006C0000000700000004000000F6505E0EBA437240FFC25DAB5E635A400000000000000000DAE02483FDDE72403BDD81ED1E6259400000000000000000C63B0E5A47017340D079923E3DAD5A400000000000000000E2AB47E503667240945F6EFC7CAE5B4000000000000000
310
00840000000600000005000000F6505E0EBA437240FFC25DAB5E635A400000000000000000DAE02483FDDE72403BDD81ED1E6259400000000000000000C63B0E5A47017340D079923E3DAD5A400000000000000000E2AB47E503667240945F6EFC7CAE5B400000000000000000F6505E0EBA437240FFC25DAB5E635A400000
310
000000000000
100
AcDbWipeout
 90
        0
 10
292.232923859046
 20
101.533137680836
 30
0.0
 11
11.84699600904156
 21
0.0
 31
0.0
 12
0.0
 22
11.84699600904156
 32
0.0
 13
1.0
 23
1.0
340
0
 70
     7
280
     1
281
    50
282
    50
283
     0
360
0
 71
     2
 91
        5
 14
-0.5
 24
0.160714372008
 14
0.319107964617
 24
0.5
 14
0.5
 24
0.063287994854
 14
-0.319107964617
 24
-0.275997633138
 14
-0.5
 24
0.160714372008
  0
TEXT
  5
220
330
217
100
AcDbEntity
  8
profile
  6
AUSGEZOGEN
 62
    18
420
        0
370
    18
100
AcDbText
 10
292.634741463029
 20
106.522726670724
 30
0.0
 40
3.5
  1
45%%d
 50
337.5
 41
1.327488170577
  7
Arial
 72
     5
 11
301.691994589082
 21
102.771089588067
 31
0.0
100
AcDbText
  0
ENDBLK
  5
219
330
217
100
AcDbEntity
  8
0
100
AcDbBlockEnd
  0
BLOCK
  5
226
330
225
100
AcDbEntity
  8
0
100
AcDbBlockBegin
  2
DimBlk_nNn012
 70
     0
 10
0.0
 20
0.0
 30
0.0
  3
DimBlk_nNn012
  1
DimBlk_nNn012
  0
LINE
  5
228
330
225
100
AcDbEntity
  8
profile
  6
AUSGEZOGEN
 62
    18
420
        0
370
    18
100
AcDbLine
 10
346.673604823227
 20
94.653512294602
 30
0.0
 11
350.173604823227
 21
93.953512294602
 31
0.0
  0
LINE
  5
229
330
225
100
AcDbEntity
  8
profile
  6
AUSGEZOGEN
 62
    18
420
        0
370
    18
100
AcDbLine
 10
350.173604823227
 20
93.953512294602
 30
0.0
 11
346.673604823227
 21
93.253512294602
 31
0.0
  0
LINE
  5
22A
330
225
100
AcDbEntity
  8
profile
  6
AUSGEZOGEN
 62
    18
420
        0
370
    18
100
AcDbLine
 10
312.417226674882
 20
93.253512294602
 30
0.0
 11
308.917226674882
 21
93.953512294602
 31
0.0
  0
LINE
  5
22B
330
225
100
AcDbEntity
  8
profile
  6
AUSGEZOGEN
 62
    18
420
        0
370
    18
100
AcDbLine
 10
308.917226674882
 20
93.953512294602
 30
0.0
 11
312.417226674882
 21
94.653512294602
 31
0.0
  0
LINE
  5
22C
330
225
100
AcDbEntity
  8
profile
  6
AUSGEZOGEN
 62
    18
420
        0
370
    18
100
AcDbLine
 10
308.917226674882
 20
93.953512294602
 30
0.0
 11
350.173604823227
 21
93.953512294602
 31
0.0
  0
LINE
  5
22D
330
225
100
AcDbEntity
  8
profile
  6
AUSGEZOGEN
 62
     5
420
      255
370
    18
100
AcDbLine
 10
308.917226674882
 20
91.953512294602
 30
0.0
 11
308.917226674882
 21
95.953512294602
 31
0.0
  0
LINE
  5
22E
330
225
100
AcDbEntity
  8
profile
  6
AUSGEZOGEN
 62
     5
420
      255
370
    18
100
AcDbLine
 10
350.173604823227
 20
91.953512294602
 30
0.0
 11
350.173604823227
 21
95.953512294602
 31
0.0
  0
WIPEOUT
  5
22F
330
225
100
AcDbEntity
  8
profile
  6
AUSGEZOGEN
 62
    18
420
        0
370
    18
 92
      260
310
04010000030000000C00000014000000010000006C0000000700000004000000D08198D43113744074363B25D379574000000000000000006A1B526A7529754074363B25D379574000000000000000006A1B526A75297540DA9CA18B39E058400000000000000000D08198D431137440DA9CA18B39E0584000000000000000
310
00840000000600000005000000D08198D43113744074363B25D379574000000000000000006A1B526A7529754074363B25D379574000000000000000006A1B526A75297540DA9CA18B39E058400000000000000000D08198D431137440DA9CA18B39E058400000000000000000D08198D43113744074363B25D37957400000
310
000000000000
100
AcDbWipeout
 90
        0
 10
321.199665637713
 20
93.903512294602
 30
0.0
 11
17.39150021076205
 21
0.0
 31
0.0
 12
0.0
 22
17.39150021076205
 32
0.0
 13
1.0
 23
1.0
340
0
 70
     7
280
     1
281
    50
282
    50
283
     0
360
0
 71
     2
 91
        5
 14
-0.5
 24
0.5
 14
0.5
 24
0.5
 14
0.5
 24
0.178003626361
 14
-0.5
 24
0.178003626361
 14
-0.5
 24
0.5
  0
TEXT
  5
230
330
225
100
AcDbEntity
  8
profile
  6
AUSGEZOGEN
 62
    18
420
        0
370
    18
100
AcDbText
 10
321.199665637713
 20
94.953512294602
 30
0.0
 40
3.5
  1
1.624
 41
1.36569303082
  7
Arial
 72
     5
 11
337.891165860396
 21
94.953512294602
 31
0.0
100
AcDbText
  0
ENDBLK
  5
227
330
225
100
AcDbEntity
  8
0
100
AcDbBlockEnd
  0
ENDSEC
  0
SECTION
  2
ENTITIES
  0
INSERT
  5
29F
330
1F
100
AcDbEntity
  8
0
100
AcDbBlockReference
  2
Inch
 10
0.0
 20
0.0
 30
0.0
 41
0.03937007874
 42
0.03937007874
 43
0.03937007874
  0
ENDSEC
  0
SECTION
  2
OBJECTS
  0
DICTIONARY
  5
C
330
0
100
AcDbDictionary
281
     1
  3
ACAD_DETAILVIEWSTYLE
350
2DD
  3
ACAD_GROUP
350
D
  3
ACAD_LAYOUT
350
1A
  3
ACAD_MATERIAL
350
43
  3
ACAD_MLEADERSTYLE
350
2DC
  3
ACAD_MLINESTYLE
350
17
  3
ACAD_PLOTSETTINGS
350
19
  3
ACAD_PLOTSTYLENAME
350
E
  3
ACAD_SCALELIST
350
47
  3
ACAD_SECTIONVIEWSTYLE
350
2DE
  3
ACAD_TABLESTYLE
350
2DB
  3
ACAD_VISUALSTYLE
350
2A
  3
ACAD_WIPEOUT_VARS
350
6A
  3
AcDbVariableDictionary
350
2A2
  0
DICTIONARY
  5
2A0
330
8
100
AcDbDictionary
280
     1
281
     1
  3
ACAD_XREC_ROUNDTRIP
360
2A1
  0
DICTIONARY
  5
2DD
102
{ACAD_REACTORS
330
C
102
}
330
C
100
AcDbDictionary
281
     1
  0
DICTIONARY
  5
D
102
{ACAD_REACTORS
330
C
102
}
330
C
100
AcDbDictionary
281
     1
  0
DICTIONARY
  5
1A
102
{ACAD_REACTORS
330
C
102
}
330
C
100
AcDbDictionary
281
     1
  3
Layout1
350
1E
  3
Layout2
350
26
  3
Model
350
22
  0
DICTIONARY
  5
43
102
{ACAD_REACTORS
330
C
102
}
330
C
100
AcDbDictionary
281
     1
  3
ByBlock
350
45
  3
ByLayer
350
44
  3
Global
350
46
  0
DICTIONARY
  5
2DC
102
{ACAD_REACTORS
330
C
102
}
330
C
100
AcDbDictionary
281
     1
  0
DICTIONARY
  5
17
102
{ACAD_REACTORS
330
C
102
}
330
C
100
AcDbDictionary
281
     1
  3
Standard
350
18
  0
DICTIONARY
  5
19
102
{ACAD_REACTORS
330
C
102
}
330
C
100
AcDbDictionary
281
     1
  0
ACDBDICTIONARYWDFLT
  5
E
102
{ACAD_REACTORS
330
C
102
}
330
C
100
AcDbDictionary
281
     1
  3
Normal
350
F
100
AcDbDictionaryWithDefault
340
F
  0
DICTIONARY
  5
47
102
{ACAD_REACTORS
330
C
102
}
330
C
100
AcDbDictionary
281
     1
  3
A0
350
48
  3
A1
350
49
  3
A2
350
4A
  3
A3
350
4B
  3
A4
350
4C
  3
A5
350
4D
  3
A6
350
4E
  3
A7
350
4F
  3
A8
350
50
  3
A9
350
51
  3
B0
350
52
  3
B1
350
53
  3
B2
350
54
  3
B3
350
55
  3
B4
350
56
  3
B5
350
57
  3
B6
350
58
  3
B7
350
59
  3
B8
350
5A
  3
B9
350
5B
  3
C0
350
5C
  3
C1
350
5D
  3
C2
350
5E
  3
C3
350
5F
  3
C4
350
60
  3
C5
350
61
  3
C6
350
62
  3
C7
350
63
  3
C8
350
64
  3
C9
350
65
  3
D0
350
66
  3
D1
350
67
  3
D2
350
68
  0
DICTIONARY
  5
2DE
102
{ACAD_REACTORS
330
C
102
}
330
C
100
AcDbDictionary
281
     1
  0
DICTIONARY
  5
2DB
102
{ACAD_REACTORS
330
C
102
}
330
C
100
AcDbDictionary
281
     1
  0
DICTIONARY
  5
2A
102
{ACAD_REACTORS
330
C
102
}
330
C
100
AcDbDictionary
281
     1
  3
2dWireframe
350
2F
  3
Basic
350
32
  3
Brighten
350
36
  3
ColorChange
350
3A
  3
Conceptual
350
34
  3
Dim
350
35
  3
EdgeColorOff
350
3D
  3
Facepattern
350
39
  3
Flat
350
2B
  3
FlatWithEdges
350
2C
  3
Gouraud
350
2D
  3
GouraudWithEdges
350
2E
  3
Hidden
350
31
  3
JitterOff
350
3B
  3
Linepattern
350
38
  3
OverhangOff
350
3C
  3
Realistic
350
33
  3
Shaded
350
42
  3
Shaded with edges
350
41
  3
Shades of Gray
350
3E
  3
Sketchy
350
3F
  3
Thicken
350
37
  3
Wireframe
350
30
  3
X-Ray
350
40
  0
WIPEOUTVARIABLES
  5
6A
102
{ACAD_REACTORS
330
C
102
}
330
C
100
AcDbWipeoutVariables
 70
     0
  0
DICTIONARY
  5
2A2
102
{ACAD_REACTORS
330
C
102
}
330
C
100
AcDbDictionary
281
     1
  3
CANNOSCALE
350
2A3
  3
MSLTSCALE
350
2A4
  0
XRECORD
  5
2A1
102
{ACAD_REACTORS
330
2A0
102
}
330
2A0
100
AcDbXrecord
280
     1
102
VTR_0.000_0.000_1.000_1.000_GRIDDISPLAY
 70
     3
102
VTR_0.000_0.000_1.000_1.000_GRIDMAJOR
 70
     5
102
VTR_0.000_0.000_1.000_1.000_DEFAULTLIGHTING
280
     1
102
VTR_0.000_0.000_1.000_1.000_DEFAULTLIGHTINGTYPE
 70
     1
102
VTR_0.000_0.000_1.000_1.000_BRIGHTNESS
141
0.0
102
VTR_0.000_0.000_1.000_1.000_CONTRAST
142
0.0
  0
LAYOUT
  5
1E
102
{ACAD_REACTORS
330
1A
102
}
330
1A
100
AcDbPlotSettings
  1

  2
none_device
  4

  6

 40
0.0
 41
0.0
 42
0.0
 43
0.0
 44
0.0
 45
0.0
 46
0.0
 47
0.0
 48
0.0
 49
0.0
140
0.0
141
0.0
142
1.0
143
1.0
 70
   688
 72
     1
 73
     0
 74
     5
  7

 75
    16
 76
     0
 77
     2
 78
   300
147
1.0
148
0.0
149
0.0
100
AcDbLayout
  1
Layout1
 70
     1
 71
     1
 10
0.0
 20
0.0
 11
420.0
 21
297.0
 12
0.0
 22
0.0
 32
0.0
 14
1.000000000000E+20
 24
1.000000000000E+20
 34
1.000000000000E+20
 15
-1.000000000000E+20
 25
-1.000000000000E+20
 35
-1.000000000000E+20
146
0.0
 13
0.0
 23
0.0
 33
0.0
 16
1.0
 26
0.0
 36
0.0
 17
0.0
 27
1.0
 37
0.0
 76
     0
330
1B
  0
LAYOUT
  5
26
102
{ACAD_REACTORS
330
1A
102
}
330
1A
100
AcDbPlotSettings
  1

  2
none_device
  4

  6

 40
0.0
 41
0.0
 42
0.0
 43
0.0
 44
0.0
 45
0.0
 46
0.0
 47
0.0
 48
0.0
 49
0.0
140
0.0
141
0.0
142
1.0
143
1.0
 70
   688
 72
     1
 73
     0
 74
     5
  7

 75
    16
 76
     0
 77
     2
 78
   300
147
1.0
148
0.0
149
0.0
100
AcDbLayout
  1
Layout2
 70
     1
 71
     2
 10
0.0
 20
0.0
 11
0.0
 21
0.0
 12
0.0
 22
0.0
 32
0.0
 14
0.0
 24
0.0
 34
0.0
 15
0.0
 25
0.0
 35
0.0
146
0.0
 13
0.0
 23
0.0
 33
0.0
 16
1.0
 26
0.0
 36
0.0
 17
0.0
 27
1.0
 37
0.0
 76
     0
330
23
  0
LAYOUT
  5
22
102
{ACAD_REACTORS
330
1A
102
}
330
1A
100
AcDbPlotSettings
  1

  2
none_device
  4
Letter_(8.50_x_11.00_Inches)
  6

 40
6.35
 41
6.35
 42
6.35000508
 43
6.35000508
 44
215.9
 45
279.4
 46
0.0
 47
0.0
 48
0.0
 49
0.0
140
0.0
141
0.0
142
1.0
143
1.0
 70
  1712
 72
     1
 73
     0
 74
     0
  7

 75
     0
 76
     0
 77
     2
 78
   300
147
1.0
148
0.0
149
0.0
100
AcDbLayout
  1
Model
 70
     1
 71
     0
 10
0.0
 20
0.0
 11
420.0
 21
297.0
 12
0.0
 22
0.0
 32
0.0
 14
-0.510941457392
 24
-1.41063411084
 34
0.0
 15
26.642315538019
 25
9.93366588916
 35
0.0
146
0.0
 13
0.0
 23
0.0
 33
0.0
 16
1.0
 26
0.0
 36
0.0
 17
0.0
 27
1.0
 37
0.0
 76
     0
330
1F
331
29
  0
MATERIAL
  5
45
102
{ACAD_REACTORS
330
43
102
}
102
{ACAD_XDICTIONARY
360
2D7
102
}
330
43
100
AcDbMaterial
  1
ByBlock
  0
MATERIAL
  5
44
102
{ACAD_REACTORS
330
43
102
}
102
{ACAD_XDICTIONARY
360
2D5
102
}
330
43
100
AcDbMaterial
  1
ByLayer
  0
MATERIAL
  5
46
102
{ACAD_REACTORS
330
43
102
}
102
{ACAD_XDICTIONARY
360
2D9
102
}
330
43
100
AcDbMaterial
  1
Global
  0
MLINESTYLE
  5
18
102
{ACAD_REACTORS
330
17
102
}
330
17
100
AcDbMlineStyle
  2
Standard
 70
     0
  3

 62
   256
 51
90.0
 52
90.0
 71
     2
 49
0.5
 62
   256
  6
BYLAYER
 49
-0.5
 62
   256
  6
BYLAYER
  0
ACDBPLACEHOLDER
  5
F
102
{ACAD_REACTORS
330
E
102
}
330
E
  0
SCALE
  5
48
102
{ACAD_REACTORS
330
47
102
}
330
47
100
AcDbScale
 70
     0
300
1:1
140
1.0
141
1.0
290
     1
  0
SCALE
  5
49
102
{ACAD_REACTORS
330
47
102
}
330
47
100
AcDbScale
 70
     0
300
1:2
140
1.0
141
2.0
290
     0
  0
SCALE
  5
4A
102
{ACAD_REACTORS
330
47
102
}
330
47
100
AcDbScale
 70
     0
300
1:4
140
1.0
141
4.0
290
     0
  0
SCALE
  5
4B
102
{ACAD_REACTORS
330
47
102
}
330
47
100
AcDbScale
 70
     0
300
1:5
140
1.0
141
5.0
290
     0
  0
SCALE
  5
4C
102
{ACAD_REACTORS
330
47
102
}
330
47
100
AcDbScale
 70
     0
300
1:8
140
1.0
141
8.0
290
     0
  0
SCALE
  5
4D
102
{ACAD_REACTORS
330
47
102
}
330
47
100
AcDbScale
 70
     0
300
1:10
140
1.0
141
10.0
290
     0
  0
SCALE
  5
4E
102
{ACAD_REACTORS
330
47
102
}
330
47
100
AcDbScale
 70
     0
300
1:16
140
1.0
141
16.0
290
     0
  0
SCALE
  5
4F
102
{ACAD_REACTORS
330
47
102
}
330
47
100
AcDbScale
 70
     0
300
1:20
140
1.0
141
20.0
290
     0
  0
SCALE
  5
50
102
{ACAD_REACTORS
330
47
102
}
330
47
100
AcDbScale
 70
     0
300
1:30
140
1.0
141
30.0
290
     0
  0
SCALE
  5
51
102
{ACAD_REACTORS
330
47
102
}
330
47
100
AcDbScale
 70
     0
300
1:40
140
1.0
141
40.0
290
     0
  0
SCALE
  5
52
102
{ACAD_REACTORS
330
47
102
}
330
47
100
AcDbScale
 70
     0
300
1:50
140
1.0
141
50.0
290
     0
  0
SCALE
  5
53
102
{ACAD_REACTORS
330
47
102
}
330
47
100
AcDbScale
 70
     0
300
1:100
140
1.0
141
100.0
290
     0
  0
SCALE
  5
54
102
{ACAD_REACTORS
330
47
102
}
330
47
100
AcDbScale
 70
     0
300
2:1
140
2.0
141
1.0
290
     0
  0
SCALE
  5
55
102
{ACAD_REACTORS
330
47
102
}
330
47
100
AcDbScale
 70
     0
300
4:1
140
4.0
141
1.0
290
     0
  0
SCALE
  5
56
102
{ACAD_REACTORS
330
47
102
}
330
47
100
AcDbScale
 70
     0
300
8:1
140
8.0
141
1.0
290
     0
  0
SCALE
  5
57
102
{ACAD_REACTORS
330
47
102
}
330
47
100
AcDbScale
 70
     0
300
10:1
140
10.0
141
1.0
290
     0
  0
SCALE
  5
58
102
{ACAD_REACTORS
330
47
102
}
330
47
100
AcDbScale
 70
     0
300
100:1
140
100.0
141
1.0
290
     0
  0
SCALE
  5
59
102
{ACAD_REACTORS
330
47
102
}
330
47
100
AcDbScale
 70
     0
300
1/128" = 1'-0"
140
0.0078125
141
12.0
290
     0
  0
SCALE
  5
5A
102
{ACAD_REACTORS
330
47
102
}
330
47
100
AcDbScale
 70
     0
300
1/64" = 1'-0"
140
0.015625
141
12.0
290
     0
  0
SCALE
  5
5B
102
{ACAD_REACTORS
330
47
102
}
330
47
100
AcDbScale
 70
     0
300
1/32" = 1'-0"
140
0.03125
141
12.0
290
     0
  0
SCALE
  5
5C
102
{ACAD_REACTORS
330
47
102
}
330
47
100
AcDbScale
 70
     0
300
1/16" = 1'-0"
140
0.0625
141
12.0
290
     0
  0
SCALE
  5
5D
102
{ACAD_REACTORS
330
47
102
}
330
47
100
AcDbScale
 70
     0
300
3/32" = 1'-0"
140
0.09375
141
12.0
290
     0
  0
SCALE
  5
5E
102
{ACAD_REACTORS
330
47
102
}
330
47
100
AcDbScale
 70
     0
300
1/8" = 1'-0"
140
0.125
141
12.0
290
     0
  0
SCALE
  5
5F
102
{ACAD_REACTORS
330
47
102
}
330
47
100
AcDbScale
 70
     0
300
3/16" = 1'-0"
140
0.1875
141
12.0
290
     0
  0
SCALE
  5
60
102
{ACAD_REACTORS
330
47
102
}
330
47
100
AcDbScale
 70
     0
300
1/4" = 1'-0"
140
0.25
141
12.0
290
     0
  0
SCALE
  5
61
102
{ACAD_REACTORS
330
47
102
}
330
47
100
AcDbScale
 70
     0
300
3/8" = 1'-0"
140
0.375
141
12.0
290
     0
  0
SCALE
  5
62
102
{ACAD_REACTORS
330
47
102
}
330
47
100
AcDbScale
 70
     0
300
1/2" = 1'-0"
140
0.5
141
12.0
290
     0
  0
SCALE
  5
63
102
{ACAD_REACTORS
330
47
102
}
330
47
100
AcDbScale
 70
     0
300
3/4" = 1'-0"
140
0.75
141
12.0
290
     0
  0
SCALE
  5
64
102
{ACAD_REACTORS
330
47
102
}
330
47
100
AcDbScale
 70
     0
300
1" = 1'-0"
140
1.0
141
12.0
290
     0
  0
SCALE
  5
65
102
{ACAD_REACTORS
330
47
102
}
330
47
100
AcDbScale
 70
     0
300
1-1/2" = 1'-0"
140
1.5
141
12.0
290
     0
  0
SCALE
  5
66
102
{ACAD_REACTORS
330
47
102
}
330
47
100
AcDbScale
 70
     0
300
3" = 1'-0"
140
3.0
141
12.0
290
     0
  0
SCALE
  5
67
102
{ACAD_REACTORS
330
47
102
}
330
47
100
AcDbScale
 70
     0
300
6" = 1'-0"
140
6.0
141
12.0
290
     0
  0
SCALE
  5
68
102
{ACAD_REACTORS
330
47
102
}
330
47
100
AcDbScale
 70
     0
300
1'-0" = 1'-0"
140
12.0
141
12.0
290
     0
  0
VISUALSTYLE
  5
2F
102
{ACAD_REACTORS
330
2A
102
}
102
{ACAD_XDICTIONARY
360
2AD
102
}
330
2A
100
AcDbVisualStyle
  2
2dWireframe
 70
     4
 71
     0
 72
     2
 73
     0
 90
        0
 40
0.6
 41
30.0
 62
     5
 63
     7
421
 16777215
 74
     1
 91
        4
 64
     7
 65
   257
 75
     1
175
     1
 42
1.0
 92
        0
 66
   257
 43
1.0
 76
     1
 77
     6
 78
     2
 67
     7
 79
     5
170
     0
171
     0
290
     0
174
     0
 93
        1
 44
0.0
173
     0
291
     0
 45
0.0
1001
ACAD
1000
AcDbSavedByObjectVersion
1070
     0
  0
VISUALSTYLE
  5
32
102
{ACAD_REACTORS
330
2A
102
}
102
{ACAD_XDICTIONARY
360
2B3
102
}
330
2A
100
AcDbVisualStyle
  2
Basic
 70
     7
 71
     1
 72
     0
 73
     1
 90
        0
 40
0.6
 41
30.0
 62
     5
 63
     7
421
 16777215
 74
     0
 91
        4
 64
     7
 65
   257
 75
     1
175
     1
 42
1.0
 92
        8
 66
     7
 43
1.0
 76
     1
 77
     6
 78
     2
 67
     7
 79
     5
170
     0
171
     0
290
     0
174
     0
 93
        1
 44
0.0
173
     0
291
     1
 45
0.0
1001
ACAD
1000
AcDbSavedByObjectVersion
1070
     0
  0
VISUALSTYLE
  5
36
102
{ACAD_REACTORS
330
2A
102
}
102
{ACAD_XDICTIONARY
360
2BB
102
}
330
2A
100
AcDbVisualStyle
  2
Brighten
 70
    12
 71
     2
 72
     2
 73
     0
 90
        0
 40
0.6
 41
30.0
 62
     5
 63
     7
421
 16777215
 74
     1
 91
        4
 64
     7
 65
   257
 75
     1
175
     1
 42
1.0
 92
        8
 66
     7
 43
1.0
 76
     1
 77
     6
 78
     2
 67
     7
 79
     5
170
     0
171
     0
290
     0
174
     0
 93
        1
 44
50.0
173
     0
291
     1
 45
0.0
1001
ACAD
1000
AcDbSavedByObjectVersion
1070
     0
  0
VISUALSTYLE
  5
3A
102
{ACAD_REACTORS
330
2A
102
}
102
{ACAD_XDICTIONARY
360
2C3
102
}
330
2A
100
AcDbVisualStyle
  2
ColorChange
 70
    16
 71
     2
 72
     2
 73
     3
 90
        0
 40
0.6
 41
30.0
 62
     5
 63
     8
421
  8421504
 74
     1
 91
        4
 64
     7
 65
   257
 75
     1
175
     1
 42
1.0
 92
        8
 66
     8
424
  8421504
 43
1.0
 76
     1
 77
     6
 78
     2
 67
     7
 79
     5
170
     0
171
     0
290
     0
174
     0
 93
        1
 44
0.0
173
     0
291
     1
 45
0.0
1001
ACAD
1000
AcDbSavedByObjectVersion
1070
     0
  0
VISUALSTYLE
  5
34
102
{ACAD_REACTORS
330
2A
102
}
102
{ACAD_XDICTIONARY
360
2B7
102
}
330
2A
100
AcDbVisualStyle
  2
Conceptual
 70
     9
 71
     3
 72
     2
 73
     0
 90
        0
 40
0.6
 41
30.0
 62
     5
 63
     7
421
 16777215
 74
     2
 91
        2
 64
     7
 65
   257
 75
     1
175
     1
 42
179.0
 92
        8
 66
     7
 43
1.0
 76
     1
 77
     6
 78
     2
 67
     7
 79
     3
170
     0
171
     0
290
     0
174
     0
 93
        1
 44
0.0
173
     0
291
     0
 45
0.0
1001
ACAD
1000
AcDbSavedByObjectVersion
1070
     0
  0
VISUALSTYLE
  5
35
102
{ACAD_REACTORS
330
2A
102
}
102
{ACAD_XDICTIONARY
360
2B9
102
}
330
2A
100
AcDbVisualStyle
  2
Dim
 70
    11
 71
     2
 72
     2
 73
     0
 90
        0
 40
0.6
 41
30.0
 62
     5
 63
     7
421
 16777215
 74
     1
 91
        4
 64
     7
 65
   257
 75
     1
175
     1
 42
1.0
 92
        8
 66
     7
 43
1.0
 76
     1
 77
     6
 78
     2
 67
     7
 79
     5
170
     0
171
     0
290
     0
174
     0
 93
        1
 44
-50.0
173
     0
291
     1
 45
0.0
1001
ACAD
1000
AcDbSavedByObjectVersion
1070
     0
  0
VISUALSTYLE
  5
3D
102
{ACAD_REACTORS
330
2A
102
}
102
{ACAD_XDICTIONARY
360
2C9
102
}
330
2A
100
AcDbVisualStyle
  2
EdgeColorOff
 70
    22
 71
     2
 72
     2
 73
     0
 90
        0
 40
0.6
 41
30.0
 62
     5
 63
     7
421
 16777215
 74
     1
 91
        4
 64
     7
 65
   257
 75
     1
175
     1
 42
1.0
 92
        8
 66
     7
 43
1.0
 76
     1
 77
     6
 78
     2
 67
     7
 79
     5
170
     0
171
     0
290
     0
174
     0
 93
        1
 44
0.0
173
     0
291
     1
 45
0.0
1001
ACAD
1000
AcDbSavedByObjectVersion
1070
     0
  0
VISUALSTYLE
  5
39
102
{ACAD_REACTORS
330
2A
102
}
102
{ACAD_XDICTIONARY
360
2C1
102
}
330
2A
100
AcDbVisualStyle
  2
Facepattern
 70
    15
 71
     2
 72
     2
 73
     0
 90
        0
 40
0.6
 41
30.0
 62
     5
 63
     7
421
 16777215
 74
     1
 91
        4
 64
     7
 65
   257
 75
     1
175
     1
 42
1.0
 92
        8
 66
     7
 43
1.0
 76
     1
 77
     6
 78
     2
 67
     7
 79
     5
170
     0
171
     0
290
     0
174
     0
 93
        1
 44
0.0
173
     0
291
     1
 45
0.0
1001
ACAD
1000
AcDbSavedByObjectVersion
1070
     0
  0
VISUALSTYLE
  5
2B
102
{ACAD_REACTORS
330
2A
102
}
102
{ACAD_XDICTIONARY
360
2A5
102
}
330
2A
100
AcDbVisualStyle
  2
Flat
 70
     0
 71
     2
 72
     1
 73
     1
 90
        2
 40
0.6
 41
30.0
 62
     5
 63
     7
421
 16777215
 74
     0
 91
        0
 64
     7
 65
   257
 75
     1
175
     1
 42
1.0
 92
        8
 66
     7
 43
1.0
 76
     1
 77
     6
 78
     2
 67
     7
 79
     5
170
     0
171
     0
290
     0
174
     0
 93
       13
 44
0.0
173
     0
291
     1
 45
0.0
1001
ACAD
1000
AcDbSavedByObjectVersion
1070
     0
  0
VISUALSTYLE
  5
2C
102
{ACAD_REACTORS
330
2A
102
}
102
{ACAD_XDICTIONARY
360
2A7
102
}
330
2A
100
AcDbVisualStyle
  2
FlatWithEdges
 70
     1
 71
     2
 72
     1
 73
     1
 90
        2
 40
0.6
 41
30.0
 62
     5
 63
     7
421
 16777215
 74
     1
 91
        0
 64
     7
 65
   257
 75
     1
175
     1
 42
1.0
 92
        0
 66
   257
 43
1.0
 76
     1
 77
     6
 78
     2
 67
     7
 79
     5
170
     0
171
     0
290
     0
174
     0
 93
       13
 44
0.0
173
     0
291
     1
 45
0.0
1001
ACAD
1000
AcDbSavedByObjectVersion
1070
     0
  0
VISUALSTYLE
  5
2D
102
{ACAD_REACTORS
330
2A
102
}
102
{ACAD_XDICTIONARY
360
2A9
102
}
330
2A
100
AcDbVisualStyle
  2
Gouraud
 70
     2
 71
     2
 72
     2
 73
     1
 90
        2
 40
0.6
 41
30.0
 62
     5
 63
     7
421
 16777215
 74
     0
 91
        0
 64
     7
 65
   257
 75
     1
175
     1
 42
1.0
 92
        0
 66
     7
 43
1.0
 76
     1
 77
     6
 78
     2
 67
     7
 79
     5
170
     0
171
     0
290
     0
174
     0
 93
       13
 44
0.0
173
     0
291
     1
 45
0.0
1001
ACAD
1000
AcDbSavedByObjectVersion
1070
     0
  0
VISUALSTYLE
  5
2E
102
{ACAD_REACTORS
330
2A
102
}
102
{ACAD_XDICTIONARY
360
2AB
102
}
330
2A
100
AcDbVisualStyle
  2
GouraudWithEdges
 70
     3
 71
     2
 72
     2
 73
     1
 90
        2
 40
0.6
 41
30.0
 62
     5
 63
     7
421
 16777215
 74
     1
 91
        0
 64
     7
 65
   257
 75
     1
175
     1
 42
1.0
 92
        0
 66
   257
 43
1.0
 76
     1
 77
     6
 78
     2
 67
     7
 79
     5
170
     0
171
     0
290
     0
174
     0
 93
       13
 44
0.0
173
     0
291
     1
 45
0.0
1001
ACAD
1000
AcDbSavedByObjectVersion
1070
     0
  0
VISUALSTYLE
  5
31
102
{ACAD_REACTORS
330
2A
102
}
102
{ACAD_XDICTIONARY
360
2B1
102
}
330
2A
100
AcDbVisualStyle
  2
Hidden
 70
     6
 71
     1
 72
     2
 73
     2
 90
        0
 40
0.6
 41
30.0
 62
     5
 63
     7
421
 16777215
 74
     2
 91
        2
 64
     7
 65
   257
 75
     2
175
     1
 42
40.0
 92
        0
 66
   257
 43
1.0
 76
     1
 77
     6
 78
     2
 67
     7
 79
     3
170
     0
171
     0
290
     0
174
     0
 93
        1
 44
0.0
173
     0
291
     0
 45
0.0
1001
ACAD
1000
AcDbSavedByObjectVersion
1070
     0
  0
VISUALSTYLE
  5
3B
102
{ACAD_REACTORS
330
2A
102
}
102
{ACAD_XDICTIONARY
360
2C5
102
}
330
2A
100
AcDbVisualStyle
  2
JitterOff
 70
    20
 71
     2
 72
     2
 73
     0
 90
        0
 40
0.6
 41
30.0
 62
     5
 63
     7
421
 16777215
 74
     1
 91
        4
 64
     7
 65
   257
 75
     1
175
     1
 42
1.0
 92
       10
 66
     7
 43
1.0
 76
     1
 77
     6
 78
     2
 67
     7
 79
     5
170
     0
171
     0
290
     0
174
     0
 93
        1
 44
0.0
173
     0
291
     1
 45
0.0
1001
ACAD
1000
AcDbSavedByObjectVersion
1070
     0
  0
VISUALSTYLE
  5
38
102
{ACAD_REACTORS
330
2A
102
}
102
{ACAD_XDICTIONARY
360
2BF
102
}
330
2A
100
AcDbVisualStyle
  2
Linepattern
 70
    14
 71
     2
 72
     2
 73
     0
 90
        0
 40
0.6
 41
30.0
 62
     5
 63
     7
421
 16777215
 74
     1
 91
        4
 64
     7
 65
   257
 75
     7
175
     7
 42
1.0
 92
        8
 66
     7
 43
1.0
 76
     1
 77
     6
 78
     2
 67
     7
 79
     5
170
     0
171
     0
290
     0
174
     0
 93
        1
 44
0.0
173
     0
291
     1
 45
0.0
1001
ACAD
1000
AcDbSavedByObjectVersion
1070
     0
  0
VISUALSTYLE
  5
3C
102
{ACAD_REACTORS
330
2A
102
}
102
{ACAD_XDICTIONARY
360
2C7
102
}
330
2A
100
AcDbVisualStyle
  2
OverhangOff
 70
    21
 71
     2
 72
     2
 73
     0
 90
        0
 40
0.6
 41
30.0
 62
     5
 63
     7
421
 16777215
 74
     1
 91
        4
 64
     7
 65
   257
 75
     1
175
     1
 42
1.0
 92
        9
 66
     7
 43
1.0
 76
     1
 77
     6
 78
     2
 67
     7
 79
     5
170
     0
171
     0
290
     0
174
     0
 93
        1
 44
0.0
173
     0
291
     1
 45
0.0
1001
ACAD
1000
AcDbSavedByObjectVersion
1070
     0
  0
VISUALSTYLE
  5
33
102
{ACAD_REACTORS
330
2A
102
}
102
{ACAD_XDICTIONARY
360
2B5
102
}
330
2A
100
AcDbVisualStyle
  2
Realistic
 70
     8
 71
     2
 72
     3
 73
     0
 90
        2
 40
0.6
 41
30.0
 62
     5
 63
     7
421
 16777215
 74
     0
 91
        0
 64
     7
 65
   257
 75
     1
175
     1
 42
1.0
 92
        8
 66
   257
 43
1.0
 76
     1
 77
     6
 78
     2
 67
     7
 79
     3
170
     0
171
     0
290
     0
174
     0
 93
       13
 44
0.0
173
     0
291
     0
 45
0.0
1001
ACAD
1000
AcDbSavedByObjectVersion
1070
     0
  0
VISUALSTYLE
  5
42
102
{ACAD_REACTORS
330
2A
102
}
102
{ACAD_XDICTIONARY
360
2D3
102
}
330
2A
100
AcDbVisualStyle
  2
Shaded
 70
    27
 71
     2
 72
     2
 73
     1
 90
        2
 40
0.6
 41
30.0
 62
     5
 63
     7
421
 16777215
 74
     0
 91
        4
 64
     7
 65
   257
 75
     1
175
     1
 42
1.0
 92
        8
 66
   257
 43
1.0
 76
     1
 77
     6
 78
     2
 67
     8
425
  7895160
 79
     3
170
     0
171
     0
290
     0
174
     0
 93
        5
 44
0.0
173
     0
291
     0
 45
0.0
1001
ACAD
1000
AcDbSavedByObjectVersion
1070
     0
  0
VISUALSTYLE
  5
41
102
{ACAD_REACTORS
330
2A
102
}
102
{ACAD_XDICTIONARY
360
2D1
102
}
330
2A
100
AcDbVisualStyle
  2
Shaded with edges
 70
    26
 71
     2
 72
     2
 73
     1
 90
        2
 40
0.6
 41
30.0
 62
     5
 63
     7
421
 16777215
 74
     1
 91
       10
 64
     7
 65
   257
 75
     2
175
     1
 42
1.0
 92
        8
 66
   257
 43
1.0
 76
     1
 77
     6
 78
     2
 67
     7
 79
     3
170
     0
171
     0
290
     0
174
     0
 93
        5
 44
0.0
173
     0
291
     0
 45
0.0
1001
ACAD
1000
AcDbSavedByObjectVersion
1070
     0
  0
VISUALSTYLE
  5
3E
102
{ACAD_REACTORS
330
2A
102
}
102
{ACAD_XDICTIONARY
360
2CB
102
}
330
2A
100
AcDbVisualStyle
  2
Shades of Gray
 70
    23
 71
     2
 72
     2
 73
     3
 90
        0
 40
0.6
 41
30.0
 62
     5
 63
     7
421
 16777215
 74
     2
 91
        2
 64
     7
 65
     7
 75
     1
175
     1
 42
40.0
 92
        8
 66
     7
 43
1.0
 76
     1
 77
     6
 78
     2
 67
     7
 79
     3
170
     0
171
     0
290
     0
174
     0
 93
        1
 44
0.0
173
     0
291
     0
 45
0.0
1001
ACAD
1000
AcDbSavedByObjectVersion
1070
     0
  0
VISUALSTYLE
  5
3F
102
{ACAD_REACTORS
330
2A
102
}
102
{ACAD_XDICTIONARY
360
2CD
102
}
330
2A
100
AcDbVisualStyle
  2
Sketchy
 70
    24
 71
     1
 72
     2
 73
     2
 90
        0
 40
0.6
 41
30.0
 62
     5
 63
     7
421
 16777215
 74
     2
 91
        2
 64
     7
 65
     7
 75
     1
175
     1
 42
40.0
 92
       11
 66
     7
 43
1.0
 76
     1
 77
     6
 78
     2
 67
     7
 79
     6
170
     0
171
     0
290
     0
174
     0
 93
        1
 44
0.0
173
     0
291
     0
 45
0.0
1001
ACAD
1000
AcDbSavedByObjectVersion
1070
     0
  0
VISUALSTYLE
  5
37
102
{ACAD_REACTORS
330
2A
102
}
102
{ACAD_XDICTIONARY
360
2BD
102
}
330
2A
100
AcDbVisualStyle
  2
Thicken
 70
    13
 71
     2
 72
     2
 73
     0
 90
        0
 40
0.6
 41
30.0
 62
     5
 63
     7
421
 16777215
 74
     1
 91
        4
 64
     7
 65
   257
 75
     1
175
     1
 42
1.0
 92
       12
 66
     7
 43
1.0
 76
     1
 77
     6
 78
     2
 67
     7
 79
     5
170
     0
171
     0
290
     0
174
     0
 93
        1
 44
0.0
173
     0
291
     1
 45
0.0
1001
ACAD
1000
AcDbSavedByObjectVersion
1070
     0
  0
VISUALSTYLE
  5
30
102
{ACAD_REACTORS
330
2A
102
}
102
{ACAD_XDICTIONARY
360
2AF
102
}
330
2A
100
AcDbVisualStyle
  2
Wireframe
 70
     5
 71
     0
 72
     2
 73
     0
 90
        0
 40
0.6
 41
30.0
 62
     5
 63
     7
421
 16777215
 74
     1
 91
        4
 64
     7
 65
   257
 75
     1
175
     1
 42
1.0
 92
        0
 66
   257
 43
1.0
 76
     1
 77
     6
 78
     2
 67
     7
 79
     3
170
     0
171
     0
290
     0
174
     0
 93
        1
 44
0.0
173
     0
291
     0
 45
0.0
1001
ACAD
1000
AcDbSavedByObjectVersion
1070
     0
  0
VISUALSTYLE
  5
40
102
{ACAD_REACTORS
330
2A
102
}
102
{ACAD_XDICTIONARY
360
2CF
102
}
330
2A
100
AcDbVisualStyle
  2
X-Ray
 70
    25
 71
     2
 72
     2
 73
     1
 90
        1
 40
0.5
 41
30.0
 62
     5
 63
     7
421
 16777215
 74
     1
 91
        0
 64
     7
 65
   257
 75
     1
175
     1
 42
1.0
 92
        8
 66
     7
 43
1.0
 76
     1
 77
     6
 78
     2
 67
     7
 79
     3
170
     0
171
     0
290
     0
174
     0
 93
       13
 44
0.0
173
     0
291
     0
 45
0.0
1001
ACAD
1000
AcDbSavedByObjectVersion
1070
     0
  0
DICTIONARYVAR
  5
2A3
102
{ACAD_REACTORS
330
2A2
102
}
330
2A2
100
DictionaryVariables
280
     0
  1
1:1
  0
DICTIONARYVAR
  5
2A4
102
{ACAD_REACTORS
330
2A2
102
}
330
2A2
100
DictionaryVariables
280
     0
  1
1
  0
DICTIONARY
  5
2D7
330
45
100
AcDbDictionary
280
     1
281
     1
  3
ACAD_XREC_ROUNDTRIP
360
2D8
  0
DICTIONARY
  5
2D5
330
44
100
AcDbDictionary
280
     1
281
     1
  3
ACAD_XREC_ROUNDTRIP
360
2D6
  0
DICTIONARY
  5
2D9
330
46
100
AcDbDictionary
280
     1
281
     1
  3
ACAD_XREC_ROUNDTRIP
360
2DA
  0
DICTIONARY
  5
2AD
330
2F
100
AcDbDictionary
280
     1
281
     1
  3
ACAD_XREC_ROUNDTRIP
360
2AE
  0
DICTIONARY
  5
2B3
330
32
100
AcDbDictionary
280
     1
281
     1
  3
ACAD_XREC_ROUNDTRIP
360
2B4
  0
DICTIONARY
  5
2BB
330
36
100
AcDbDictionary
280
     1
281
     1
  3
ACAD_XREC_ROUNDTRIP
360
2BC
  0
DICTIONARY
  5
2C3
330
3A
100
AcDbDictionary
280
     1
281
     1
  3
ACAD_XREC_ROUNDTRIP
360
2C4
  0
DICTIONARY
  5
2B7
330
34
100
AcDbDictionary
280
     1
281
     1
  3
ACAD_XREC_ROUNDTRIP
360
2B8
  0
DICTIONARY
  5
2B9
330
35
100
AcDbDictionary
280
     1
281
     1
  3
ACAD_XREC_ROUNDTRIP
360
2BA
  0
DICTIONARY
  5
2C9
330
3D
100
AcDbDictionary
280
     1
281
     1
  3
ACAD_XREC_ROUNDTRIP
360
2CA
  0
DICTIONARY
  5
2C1
330
39
100
AcDbDictionary
280
     1
281
     1
  3
ACAD_XREC_ROUNDTRIP
360
2C2
  0
DICTIONARY
  5
2A5
330
2B
100
AcDbDictionary
280
     1
281
     1
  3
ACAD_XREC_ROUNDTRIP
360
2A6
  0
DICTIONARY
  5
2A7
330
2C
100
AcDbDictionary
280
     1
281
     1
  3
ACAD_XREC_ROUNDTRIP
360
2A8
  0
DICTIONARY
  5
2A9
330
2D
100
AcDbDictionary
280
     1
281
     1
  3
ACAD_XREC_ROUNDTRIP
360
2AA
  0
DICTIONARY
  5
2AB
330
2E
100
AcDbDictionary
280
     1
281
     1
  3
ACAD_XREC_ROUNDTRIP
360
2AC
  0
DICTIONARY
  5
2B1
330
31
100
AcDbDictionary
280
     1
281
     1
  3
ACAD_XREC_ROUNDTRIP
360
2B2
  0
DICTIONARY
  5
2C5
330
3B
100
AcDbDictionary
280
     1
281
     1
  3
ACAD_XREC_ROUNDTRIP
360
2C6
  0
DICTIONARY
  5
2BF
330
38
100
AcDbDictionary
280
     1
281
     1
  3
ACAD_XREC_ROUNDTRIP
360
2C0
  0
DICTIONARY
  5
2C7
330
3C
100
AcDbDictionary
280
     1
281
     1
  3
ACAD_XREC_ROUNDTRIP
360
2C8
  0
DICTIONARY
  5
2B5
330
33
100
AcDbDictionary
280
     1
281
     1
  3
ACAD_XREC_ROUNDTRIP
360
2B6
  0
DICTIONARY
  5
2D3
330
42
100
AcDbDictionary
280
     1
281
     1
  3
ACAD_XREC_ROUNDTRIP
360
2D4
  0
DICTIONARY
  5
2D1
330
41
100
AcDbDictionary
280
     1
281
     1
  3
ACAD_XREC_ROUNDTRIP
360
2D2
  0
DICTIONARY
  5
2CB
330
3E
100
AcDbDictionary
280
     1
281
     1
  3
ACAD_XREC_ROUNDTRIP
360
2CC
  0
DICTIONARY
  5
2CD
330
3F
100
AcDbDictionary
280
     1
281
     1
  3
ACAD_XREC_ROUNDTRIP
360
2CE
  0
DICTIONARY
  5
2BD
330
37
100
AcDbDictionary
280
     1
281
     1
  3
ACAD_XREC_ROUNDTRIP
360
2BE
  0
DICTIONARY
  5
2AF
330
30
100
AcDbDictionary
280
     1
281
     1
  3
ACAD_XREC_ROUNDTRIP
360
2B0
  0
DICTIONARY
  5
2CF
330
40
100
AcDbDictionary
280
     1
281
     1
  3
ACAD_XREC_ROUNDTRIP
360
2D0
  0
XRECORD
  5
2D8
102
{ACAD_REACTORS
330
2D7
102
}
330
2D7
100
AcDbXrecord
280
     1
102
MATERIAL
148
0.0
149
0.0
149
0.0
 93
        0
 94
      127
282
     0
 72
     1
 77
     1
171
     1
175
     1
179
     1
273
     0
  0
XRECORD
  5
2D6
102
{ACAD_REACTORS
330
2D5
102
}
330
2D5
100
AcDbXrecord
280
     1
102
MATERIAL
148
0.0
149
0.0
149
0.0
 93
        0
 94
      127
282
     0
 72
     1
 77
     1
171
     1
175
     1
179
     1
273
     0
  0
XRECORD
  5
2DA
102
{ACAD_REACTORS
330
2D9
102
}
330
2D9
100
AcDbXrecord
280
     1
102
MATERIAL
148
0.0
149
0.0
149
0.0
 93
        0
 94
      127
282
     0
 72
     1
 77
     1
171
     1
175
     1
179
     1
273
     0
  0
XRECORD
  5
2AE
102
{ACAD_REACTORS
330
2AD
102
}
330
2AD
100
AcDbXrecord
280
     1
102
RTVSPropertyOp0
 70
     1
102
RTVSPropertyOp1
 70
     1
102
RTVSPropertyOp2
 70
     1
102
RTVSPropertyOp3
 70
     1
102
RTVSPropertyOp4
 70
     1
102
RTVSPropertyOp5
 70
     1
102
RTVSPropertyOp6
 70
     1
102
RTVSPropertyOp7
 70
     1
102
RTVSPropertyOp8
 70
     1
102
RTVSPropertyOp9
 70
     1
102
RTVSPropertyOp10
 70
     1
102
RTVSPropertyOp11
 70
     1
102
RTVSPropertyOp12
 70
     1
102
RTVSPropertyOp13
 70
     1
102
RTVSPropertyOp14
 70
     1
102
RTVSPropertyOp15
 70
     1
102
RTVSPropertyOp16
 70
     1
102
RTVSPropertyOp17
 70
     1
102
RTVSPropertyOp18
 70
     1
102
RTVSPropertyOp19
 70
     1
102
RTVSPropertyOp20
 70
     1
102
RTVSPropertyOp21
 70
     1
102
RTVSPropertyOp22
 70
     1
102
RTVSPropertyOp23
 70
     1
102
RTVSPropertyOp24
 70
     1
102
RTVSPropertyOp25
 70
     1
102
RTVSPropertyOp26
 70
     1
102
RTVSPropertyOp27
 70
     1
102
RTVSPropertyOp28
 70
     1
102
RTVSPropertyOp29
 70
     1
102
RTVSPropertyOp30
 70
     1
102
RTVSPropertyOp31
 70
     1
102
RTVSPropertyOp32
 70
     1
102
RTVSPropertyOp33
 70
     1
102
RTVSPropertyOp34
 70
     1
102
RTVSPropertyOp35
 70
     1
102
RTVSPropertyOp36
 70
     1
102
RTVSPropertyOp37
 70
     1
102
RTVSPropertyOp38
 70
     1
102
RTVSPropertyOp39
 70
     1
102
RTVSPropertyOp40
 70
     1
102
RTVSPropertyOp41
 70
     1
102
RTVSPropertyOp42
 70
     1
102
RTVSPropertyOp43
 70
     1
102
RTVSPropertyOp44
 70
     1
102
RTVSPropertyOp45
 70
     1
102
RTVSPropertyOp46
 70
     1
102
RTVSPropertyOp47
 70
     1
102
RTVSPropertyOp48
 70
     1
102
RTVSPropertyOp49
 70
     1
102
RTVSPropertyOp50
 70
     1
102
RTVSPropertyOp51
 70
     0
102
RTVSPropertyOp52
 70
     0
102
RTVSPropertyOp53
 70
     1
102
RTVSPropertyOp54
 70
     1
102
RTVSPropertyOp55
 70
     1
102
RTVSPropertyOp56
 70
     1
102
RTVSPropertyOp57
 70
     1
102
RTVSPost2010Prop28
280
     1
102
RTVSPost2010PropOp28
 70
     1
102
RTVSPost2010Prop29
280
     1
102
RTVSPost2010PropOp29
 70
     1
102
RTVSPost2010Prop30
280
     0
102
RTVSPost2010PropOp30
 70
     1
102
RTVSPost2010Prop31
280
     0
102
RTVSPost2010PropOp31
 70
     1
102
RTVSPost2010Prop32
280
     0
102
RTVSPost2010PropOp32
 70
     1
102
RTVSPost2010Prop33
280
     0
102
RTVSPost2010PropOp33
 70
     1
102
RTVSPost2010Prop34
280
     0
102
RTVSPost2010PropOp34
 70
     1
102
RTVSPost2010Prop35
280
     0
102
RTVSPost2010PropOp35
 70
     1
102
RTVSPost2010Prop36
280
     0
102
RTVSPost2010PropOp36
 70
     1
102
RTVSPost2010Prop37
 90
       50
102
RTVSPost2010PropOp37
 70
     1
102
RTVSPost2010Prop38
140
0.0
102
RTVSPost2010PropOp38
 70
     1
102
RTVSPost2010Prop39
140
1.0
102
RTVSPost2010PropOp39
 70
     1
102
RTVSPost2010Prop40
 90
        0
102
RTVSPost2010PropOp40
 70
     1
102
RTVSPost2010Prop41ColorIndex
 90
       18
102
RTVSPost2010Prop41ColorRGB
 90
        0
102
RTVSPost2010PropOp41
 70
     1
102
RTVSPost2010Prop42
 90
       50
102
RTVSPost2010PropOp42
 70
     1
102
RTVSPost2010Prop43
 90
        3
102
RTVSPost2010PropOp43
 70
     1
102
RTVSPost2010Prop44ColorIndex
 90
        5
102
RTVSPost2010Prop44ColorRGB
 90
      255
102
RTVSPost2010PropOp44
 70
     1
102
RTVSPost2010Prop45
280
     0
102
RTVSPost2010PropOp45
 70
     1
102
RTVSPost2010Prop46
 90
       50
102
RTVSPost2010PropOp46
 70
     1
102
RTVSPost2010Prop47
 90
       50
102
RTVSPost2010PropOp47
 70
     1
102
RTVSPost2010Prop48
 90
       50
102
RTVSPost2010PropOp48
 70
     1
102
RTVSPost2010Prop49
280
     0
102
RTVSPost2010PropOp49
 70
     1
102
RTVSPost2010Prop50
 90
       50
102
RTVSPost2010PropOp50
 70
     1
102
RTVSPost2010Prop51ColorIndex
 90
      256
102
RTVSPost2010Prop51ColorRGB
 90
-16777216
102
RTVSPost2010PropOp51
 70
     0
102
RTVSPost2010Prop52
140
1.0
102
RTVSPost2010PropOp52
 70
     0
102
RTVSPost2010Prop53
 90
        2
102
RTVSPost2010PropOp53
 70
     1
102
RTVSPost2010Prop54
  1
strokes_ogs.tif
102
RTVSPost2010PropOp54
 70
     1
102
RTVSPost2010Prop55
280
     0
102
RTVSPost2010PropOp55
 70
     1
102
RTVSPost2010Prop56
140
1.0
102
RTVSPost2010PropOp56
 70
     1
102
RTVSPost2010Prop57
140
1.0
102
RTVSPost2010PropOp57
 70
     1
  0
XRECORD
  5
2B4
102
{ACAD_REACTORS
330
2B3
102
}
330
2B3
100
AcDbXrecord
280
     1
102
RTVSPropertyOp0
 70
     1
102
RTVSPropertyOp1
 70
     1
102
RTVSPropertyOp2
 70
     1
102
RTVSPropertyOp3
 70
     1
102
RTVSPropertyOp4
 70
     1
102
RTVSPropertyOp5
 70
     1
102
RTVSPropertyOp6
 70
     1
102
RTVSPropertyOp7
 70
     1
102
RTVSPropertyOp8
 70
     1
102
RTVSPropertyOp9
 70
     1
102
RTVSPropertyOp10
 70
     1
102
RTVSPropertyOp11
 70
     1
102
RTVSPropertyOp12
 70
     1
102
RTVSPropertyOp13
 70
     1
102
RTVSPropertyOp14
 70
     1
102
RTVSPropertyOp15
 70
     1
102
RTVSPropertyOp16
 70
     1
102
RTVSPropertyOp17
 70
     1
102
RTVSPropertyOp18
 70
     1
102
RTVSPropertyOp19
 70
     1
102
RTVSPropertyOp20
 70
     1
102
RTVSPropertyOp21
 70
     1
102
RTVSPropertyOp22
 70
     1
102
RTVSPropertyOp23
 70
     1
102
RTVSPropertyOp24
 70
     1
102
RTVSPropertyOp25
 70
     1
102
RTVSPropertyOp26
 70
     1
102
RTVSPropertyOp27
 70
     1
102
RTVSPropertyOp28
 70
     1
102
RTVSPropertyOp29
 70
     1
102
RTVSPropertyOp30
 70
     1
102
RTVSPropertyOp31
 70
     1
102
RTVSPropertyOp32
 70
     1
102
RTVSPropertyOp33
 70
     1
102
RTVSPropertyOp34
 70
     1
102
RTVSPropertyOp35
 70
     1
102
RTVSPropertyOp36
 70
     1
102
RTVSPropertyOp37
 70
     1
102
RTVSPropertyOp38
 70
     1
102
RTVSPropertyOp39
 70
     1
102
RTVSPropertyOp40
 70
     1
102
RTVSPropertyOp41
 70
     1
102
RTVSPropertyOp42
 70
     1
102
RTVSPropertyOp43
 70
     1
102
RTVSPropertyOp44
 70
     1
102
RTVSPropertyOp45
 70
     1
102
RTVSPropertyOp46
 70
     1
102
RTVSPropertyOp47
 70
     1
102
RTVSPropertyOp48
 70
     1
102
RTVSPropertyOp49
 70
     1
102
RTVSPropertyOp50
 70
     1
102
RTVSPropertyOp51
 70
     0
102
RTVSPropertyOp52
 70
     0
102
RTVSPropertyOp53
 70
     1
102
RTVSPropertyOp54
 70
     1
102
RTVSPropertyOp55
 70
     1
102
RTVSPropertyOp56
 70
     1
102
RTVSPropertyOp57
 70
     1
102
RTVSPost2010Prop28
280
     0
102
RTVSPost2010PropOp28
 70
     1
102
RTVSPost2010Prop29
280
     1
102
RTVSPost2010PropOp29
 70
     1
102
RTVSPost2010Prop30
280
     1
102
RTVSPost2010PropOp30
 70
     1
102
RTVSPost2010Prop31
280
     0
102
RTVSPost2010PropOp31
 70
     1
102
RTVSPost2010Prop32
280
     0
102
RTVSPost2010PropOp32
 70
     1
102
RTVSPost2010Prop33
280
     0
102
RTVSPost2010PropOp33
 70
     1
102
RTVSPost2010Prop34
280
     0
102
RTVSPost2010PropOp34
 70
     1
102
RTVSPost2010Prop35
280
     0
102
RTVSPost2010PropOp35
 70
     1
102
RTVSPost2010Prop36
280
     0
102
RTVSPost2010PropOp36
 70
     1
102
RTVSPost2010Prop37
 90
       50
102
RTVSPost2010PropOp37
 70
     1
102
RTVSPost2010Prop38
140
0.0
102
RTVSPost2010PropOp38
 70
     1
102
RTVSPost2010Prop39
140
1.0
102
RTVSPost2010PropOp39
 70
     1
102
RTVSPost2010Prop40
 90
        0
102
RTVSPost2010PropOp40
 70
     1
102
RTVSPost2010Prop41ColorIndex
 90
       18
102
RTVSPost2010Prop41ColorRGB
 90
        0
102
RTVSPost2010PropOp41
 70
     1
102
RTVSPost2010Prop42
 90
       50
102
RTVSPost2010PropOp42
 70
     1
102
RTVSPost2010Prop43
 90
        3
102
RTVSPost2010PropOp43
 70
     1
102
RTVSPost2010Prop44ColorIndex
 90
        5
102
RTVSPost2010Prop44ColorRGB
 90
      255
102
RTVSPost2010PropOp44
 70
     1
102
RTVSPost2010Prop45
280
     0
102
RTVSPost2010PropOp45
 70
     1
102
RTVSPost2010Prop46
 90
       50
102
RTVSPost2010PropOp46
 70
     1
102
RTVSPost2010Prop47
 90
       50
102
RTVSPost2010PropOp47
 70
     1
102
RTVSPost2010Prop48
 90
       50
102
RTVSPost2010PropOp48
 70
     1
102
RTVSPost2010Prop49
280
     0
102
RTVSPost2010PropOp49
 70
     1
102
RTVSPost2010Prop50
 90
       50
102
RTVSPost2010PropOp50
 70
     1
102
RTVSPost2010Prop51ColorIndex
 90
      256
102
RTVSPost2010Prop51ColorRGB
 90
-16777216
102
RTVSPost2010PropOp51
 70
     0
102
RTVSPost2010Prop52
140
1.0
102
RTVSPost2010PropOp52
 70
     0
102
RTVSPost2010Prop53
 90
        2
102
RTVSPost2010PropOp53
 70
     1
102
RTVSPost2010Prop54
  1
strokes_ogs.tif
102
RTVSPost2010PropOp54
 70
     1
102
RTVSPost2010Prop55
280
     0
102
RTVSPost2010PropOp55
 70
     1
102
RTVSPost2010Prop56
140
1.0
102
RTVSPost2010PropOp56
 70
     1
102
RTVSPost2010Prop57
140
1.0
102
RTVSPost2010PropOp57
 70
     1
  0
XRECORD
  5
2BC
102
{ACAD_REACTORS
330
2BB
102
}
330
2BB
100
AcDbXrecord
280
     1
102
RTVSPropertyOp0
 70
     1
102
RTVSPropertyOp1
 70
     1
102
RTVSPropertyOp2
 70
     1
102
RTVSPropertyOp3
 70
     1
102
RTVSPropertyOp4
 70
     1
102
RTVSPropertyOp5
 70
     1
102
RTVSPropertyOp6
 70
     1
102
RTVSPropertyOp7
 70
     1
102
RTVSPropertyOp8
 70
     1
102
RTVSPropertyOp9
 70
     1
102
RTVSPropertyOp10
 70
     1
102
RTVSPropertyOp11
 70
     1
102
RTVSPropertyOp12
 70
     1
102
RTVSPropertyOp13
 70
     1
102
RTVSPropertyOp14
 70
     1
102
RTVSPropertyOp15
 70
     1
102
RTVSPropertyOp16
 70
     1
102
RTVSPropertyOp17
 70
     1
102
RTVSPropertyOp18
 70
     1
102
RTVSPropertyOp19
 70
     1
102
RTVSPropertyOp20
 70
     1
102
RTVSPropertyOp21
 70
     1
102
RTVSPropertyOp22
 70
     1
102
RTVSPropertyOp23
 70
     1
102
RTVSPropertyOp24
 70
     1
102
RTVSPropertyOp25
 70
     1
102
RTVSPropertyOp26
 70
     1
102
RTVSPropertyOp27
 70
     1
102
RTVSPropertyOp28
 70
     1
102
RTVSPropertyOp29
 70
     1
102
RTVSPropertyOp30
 70
     1
102
RTVSPropertyOp31
 70
     1
102
RTVSPropertyOp32
 70
     1
102
RTVSPropertyOp33
 70
     1
102
RTVSPropertyOp34
 70
     1
102
RTVSPropertyOp35
 70
     1
102
RTVSPropertyOp36
 70
     1
102
RTVSPropertyOp37
 70
     1
102
RTVSPropertyOp38
 70
     1
102
RTVSPropertyOp39
 70
     1
102
RTVSPropertyOp40
 70
     1
102
RTVSPropertyOp41
 70
     1
102
RTVSPropertyOp42
 70
     1
102
RTVSPropertyOp43
 70
     1
102
RTVSPropertyOp44
 70
     1
102
RTVSPropertyOp45
 70
     1
102
RTVSPropertyOp46
 70
     1
102
RTVSPropertyOp47
 70
     1
102
RTVSPropertyOp48
 70
     1
102
RTVSPropertyOp49
 70
     1
102
RTVSPropertyOp50
 70
     1
102
RTVSPropertyOp51
 70
     0
102
RTVSPropertyOp52
 70
     0
102
RTVSPropertyOp53
 70
     1
102
RTVSPropertyOp54
 70
     1
102
RTVSPropertyOp55
 70
     1
102
RTVSPropertyOp56
 70
     1
102
RTVSPropertyOp57
 70
     1
102
RTVSPost2010Prop28
280
     0
102
RTVSPost2010PropOp28
 70
     1
102
RTVSPost2010Prop29
280
     1
102
RTVSPost2010PropOp29
 70
     1
102
RTVSPost2010Prop30
280
     1
102
RTVSPost2010PropOp30
 70
     1
102
RTVSPost2010Prop31
280
     0
102
RTVSPost2010PropOp31
 70
     1
102
RTVSPost2010Prop32
280
     0
102
RTVSPost2010PropOp32
 70
     1
102
RTVSPost2010Prop33
280
     0
102
RTVSPost2010PropOp33
 70
     1
102
RTVSPost2010Prop34
280
     0
102
RTVSPost2010PropOp34
 70
     1
102
RTVSPost2010Prop35
280
     0
102
RTVSPost2010PropOp35
 70
     1
102
RTVSPost2010Prop36
280
     0
102
RTVSPost2010PropOp36
 70
     1
102
RTVSPost2010Prop37
 90
       50
102
RTVSPost2010PropOp37
 70
     1
102
RTVSPost2010Prop38
140
0.0
102
RTVSPost2010PropOp38
 70
     1
102
RTVSPost2010Prop39
140
1.0
102
RTVSPost2010PropOp39
 70
     1
102
RTVSPost2010Prop40
 90
        0
102
RTVSPost2010PropOp40
 70
     1
102
RTVSPost2010Prop41ColorIndex
 90
       18
102
RTVSPost2010Prop41ColorRGB
 90
        0
102
RTVSPost2010PropOp41
 70
     1
102
RTVSPost2010Prop42
 90
       50
102
RTVSPost2010PropOp42
 70
     1
102
RTVSPost2010Prop43
 90
        3
102
RTVSPost2010PropOp43
 70
     1
102
RTVSPost2010Prop44ColorIndex
 90
        5
102
RTVSPost2010Prop44ColorRGB
 90
      255
102
RTVSPost2010PropOp44
 70
     1
102
RTVSPost2010Prop45
280
     0
102
RTVSPost2010PropOp45
 70
     1
102
RTVSPost2010Prop46
 90
       50
102
RTVSPost2010PropOp46
 70
     1
102
RTVSPost2010Prop47
 90
       50
102
RTVSPost2010PropOp47
 70
     1
102
RTVSPost2010Prop48
 90
       50
102
RTVSPost2010PropOp48
 70
     1
102
RTVSPost2010Prop49
280
     0
102
RTVSPost2010PropOp49
 70
     1
102
RTVSPost2010Prop50
 90
       50
102
RTVSPost2010PropOp50
 70
     1
102
RTVSPost2010Prop51ColorIndex
 90
      256
102
RTVSPost2010Prop51ColorRGB
 90
-16777216
102
RTVSPost2010PropOp51
 70
     0
102
RTVSPost2010Prop52
140
1.0
102
RTVSPost2010PropOp52
 70
     0
102
RTVSPost2010Prop53
 90
        2
102
RTVSPost2010PropOp53
 70
     1
102
RTVSPost2010Prop54
  1
strokes_ogs.tif
102
RTVSPost2010PropOp54
 70
     1
102
RTVSPost2010Prop55
280
     0
102
RTVSPost2010PropOp55
 70
     1
102
RTVSPost2010Prop56
140
1.0
102
RTVSPost2010PropOp56
 70
     1
102
RTVSPost2010Prop57
140
1.0
102
RTVSPost2010PropOp57
 70
     1
  0
XRECORD
  5
2C4
102
{ACAD_REACTORS
330
2C3
102
}
330
2C3
100
AcDbXrecord
280
     1
102
RTVSPropertyOp0
 70
     1
102
RTVSPropertyOp1
 70
     1
102
RTVSPropertyOp2
 70
     1
102
RTVSPropertyOp3
 70
     1
102
RTVSPropertyOp4
 70
     1
102
RTVSPropertyOp5
 70
     1
102
RTVSPropertyOp6
 70
     1
102
RTVSPropertyOp7
 70
     1
102
RTVSPropertyOp8
 70
     1
102
RTVSPropertyOp9
 70
     1
102
RTVSPropertyOp10
 70
     1
102
RTVSPropertyOp11
 70
     1
102
RTVSPropertyOp12
 70
     1
102
RTVSPropertyOp13
 70
     1
102
RTVSPropertyOp14
 70
     1
102
RTVSPropertyOp15
 70
     1
102
RTVSPropertyOp16
 70
     1
102
RTVSPropertyOp17
 70
     1
102
RTVSPropertyOp18
 70
     1
102
RTVSPropertyOp19
 70
     1
102
RTVSPropertyOp20
 70
     1
102
RTVSPropertyOp21
 70
     1
102
RTVSPropertyOp22
 70
     1
102
RTVSPropertyOp23
 70
     1
102
RTVSPropertyOp24
 70
     1
102
RTVSPropertyOp25
 70
     1
102
RTVSPropertyOp26
 70
     1
102
RTVSPropertyOp27
 70
     1
102
RTVSPropertyOp28
 70
     1
102
RTVSPropertyOp29
 70
     1
102
RTVSPropertyOp30
 70
     1
102
RTVSPropertyOp31
 70
     1
102
RTVSPropertyOp32
 70
     1
102
RTVSPropertyOp33
 70
     1
102
RTVSPropertyOp34
 70
     1
102
RTVSPropertyOp35
 70
     1
102
RTVSPropertyOp36
 70
     1
102
RTVSPropertyOp37
 70
     1
102
RTVSPropertyOp38
 70
     1
102
RTVSPropertyOp39
 70
     1
102
RTVSPropertyOp40
 70
     1
102
RTVSPropertyOp41
 70
     1
102
RTVSPropertyOp42
 70
     1
102
RTVSPropertyOp43
 70
     1
102
RTVSPropertyOp44
 70
     1
102
RTVSPropertyOp45
 70
     1
102
RTVSPropertyOp46
 70
     1
102
RTVSPropertyOp47
 70
     1
102
RTVSPropertyOp48
 70
     1
102
RTVSPropertyOp49
 70
     1
102
RTVSPropertyOp50
 70
     1
102
RTVSPropertyOp51
 70
     0
102
RTVSPropertyOp52
 70
     0
102
RTVSPropertyOp53
 70
     1
102
RTVSPropertyOp54
 70
     1
102
RTVSPropertyOp55
 70
     1
102
RTVSPropertyOp56
 70
     1
102
RTVSPropertyOp57
 70
     1
102
RTVSPost2010Prop28
280
     0
102
RTVSPost2010PropOp28
 70
     1
102
RTVSPost2010Prop29
280
     1
102
RTVSPost2010PropOp29
 70
     1
102
RTVSPost2010Prop30
280
     1
102
RTVSPost2010PropOp30
 70
     1
102
RTVSPost2010Prop31
280
     0
102
RTVSPost2010PropOp31
 70
     1
102
RTVSPost2010Prop32
280
     0
102
RTVSPost2010PropOp32
 70
     1
102
RTVSPost2010Prop33
280
     0
102
RTVSPost2010PropOp33
 70
     1
102
RTVSPost2010Prop34
280
     0
102
RTVSPost2010PropOp34
 70
     1
102
RTVSPost2010Prop35
280
     0
102
RTVSPost2010PropOp35
 70
     1
102
RTVSPost2010Prop36
280
     0
102
RTVSPost2010PropOp36
 70
     1
102
RTVSPost2010Prop37
 90
       50
102
RTVSPost2010PropOp37
 70
     1
102
RTVSPost2010Prop38
140
0.0
102
RTVSPost2010PropOp38
 70
     1
102
RTVSPost2010Prop39
140
1.0
102
RTVSPost2010PropOp39
 70
     1
102
RTVSPost2010Prop40
 90
        0
102
RTVSPost2010PropOp40
 70
     1
102
RTVSPost2010Prop41ColorIndex
 90
       18
102
RTVSPost2010Prop41ColorRGB
 90
        0
102
RTVSPost2010PropOp41
 70
     1
102
RTVSPost2010Prop42
 90
       50
102
RTVSPost2010PropOp42
 70
     1
102
RTVSPost2010Prop43
 90
        3
102
RTVSPost2010PropOp43
 70
     1
102
RTVSPost2010Prop44ColorIndex
 90
        5
102
RTVSPost2010Prop44ColorRGB
 90
      255
102
RTVSPost2010PropOp44
 70
     1
102
RTVSPost2010Prop45
280
     0
102
RTVSPost2010PropOp45
 70
     1
102
RTVSPost2010Prop46
 90
       50
102
RTVSPost2010PropOp46
 70
     1
102
RTVSPost2010Prop47
 90
       50
102
RTVSPost2010PropOp47
 70
     1
102
RTVSPost2010Prop48
 90
       50
102
RTVSPost2010PropOp48
 70
     1
102
RTVSPost2010Prop49
280
     0
102
RTVSPost2010PropOp49
 70
     1
102
RTVSPost2010Prop50
 90
       50
102
RTVSPost2010PropOp50
 70
     1
102
RTVSPost2010Prop51ColorIndex
 90
      256
102
RTVSPost2010Prop51ColorRGB
 90
-16777216
102
RTVSPost2010PropOp51
 70
     0
102
RTVSPost2010Prop52
140
1.0
102
RTVSPost2010PropOp52
 70
     0
102
RTVSPost2010Prop53
 90
        2
102
RTVSPost2010PropOp53
 70
     1
102
RTVSPost2010Prop54
  1
strokes_ogs.tif
102
RTVSPost2010PropOp54
 70
     1
102
RTVSPost2010Prop55
280
     0
102
RTVSPost2010PropOp55
 70
     1
102
RTVSPost2010Prop56
140
1.0
102
RTVSPost2010PropOp56
 70
     1
102
RTVSPost2010Prop57
140
1.0
102
RTVSPost2010PropOp57
 70
     1
  0
XRECORD
  5
2B8
102
{ACAD_REACTORS
330
2B7
102
}
330
2B7
100
AcDbXrecord
280
     1
102
RTVSPropertyOp0
 70
     1
102
RTVSPropertyOp1
 70
     1
102
RTVSPropertyOp2
 70
     1
102
RTVSPropertyOp3
 70
     1
102
RTVSPropertyOp4
 70
     1
102
RTVSPropertyOp5
 70
     1
102
RTVSPropertyOp6
 70
     1
102
RTVSPropertyOp7
 70
     1
102
RTVSPropertyOp8
 70
     1
102
RTVSPropertyOp9
 70
     1
102
RTVSPropertyOp10
 70
     1
102
RTVSPropertyOp11
 70
     1
102
RTVSPropertyOp12
 70
     1
102
RTVSPropertyOp13
 70
     1
102
RTVSPropertyOp14
 70
     1
102
RTVSPropertyOp15
 70
     1
102
RTVSPropertyOp16
 70
     1
102
RTVSPropertyOp17
 70
     1
102
RTVSPropertyOp18
 70
     1
102
RTVSPropertyOp19
 70
     1
102
RTVSPropertyOp20
 70
     1
102
RTVSPropertyOp21
 70
     1
102
RTVSPropertyOp22
 70
     1
102
RTVSPropertyOp23
 70
     1
102
RTVSPropertyOp24
 70
     1
102
RTVSPropertyOp25
 70
     1
102
RTVSPropertyOp26
 70
     1
102
RTVSPropertyOp27
 70
     1
102
RTVSPropertyOp28
 70
     1
102
RTVSPropertyOp29
 70
     1
102
RTVSPropertyOp30
 70
     1
102
RTVSPropertyOp31
 70
     1
102
RTVSPropertyOp32
 70
     1
102
RTVSPropertyOp33
 70
     1
102
RTVSPropertyOp34
 70
     1
102
RTVSPropertyOp35
 70
     1
102
RTVSPropertyOp36
 70
     1
102
RTVSPropertyOp37
 70
     1
102
RTVSPropertyOp38
 70
     1
102
RTVSPropertyOp39
 70
     1
102
RTVSPropertyOp40
 70
     1
102
RTVSPropertyOp41
 70
     1
102
RTVSPropertyOp42
 70
     1
102
RTVSPropertyOp43
 70
     1
102
RTVSPropertyOp44
 70
     1
102
RTVSPropertyOp45
 70
     1
102
RTVSPropertyOp46
 70
     1
102
RTVSPropertyOp47
 70
     1
102
RTVSPropertyOp48
 70
     1
102
RTVSPropertyOp49
 70
     1
102
RTVSPropertyOp50
 70
     1
102
RTVSPropertyOp51
 70
     0
102
RTVSPropertyOp52
 70
     0
102
RTVSPropertyOp53
 70
     1
102
RTVSPropertyOp54
 70
     1
102
RTVSPropertyOp55
 70
     1
102
RTVSPropertyOp56
 70
     1
102
RTVSPropertyOp57
 70
     1
102
RTVSPost2010Prop28
280
     0
102
RTVSPost2010PropOp28
 70
     1
102
RTVSPost2010Prop29
280
     1
102
RTVSPost2010PropOp29
 70
     1
102
RTVSPost2010Prop30
280
     1
102
RTVSPost2010PropOp30
 70
     1
102
RTVSPost2010Prop31
280
     0
102
RTVSPost2010PropOp31
 70
     1
102
RTVSPost2010Prop32
280
     0
102
RTVSPost2010PropOp32
 70
     1
102
RTVSPost2010Prop33
280
     0
102
RTVSPost2010PropOp33
 70
     1
102
RTVSPost2010Prop34
280
     0
102
RTVSPost2010PropOp34
 70
     1
102
RTVSPost2010Prop35
280
     0
102
RTVSPost2010PropOp35
 70
     1
102
RTVSPost2010Prop36
280
     0
102
RTVSPost2010PropOp36
 70
     1
102
RTVSPost2010Prop37
 90
       50
102
RTVSPost2010PropOp37
 70
     1
102
RTVSPost2010Prop38
140
0.0
102
RTVSPost2010PropOp38
 70
     1
102
RTVSPost2010Prop39
140
1.0
102
RTVSPost2010PropOp39
 70
     1
102
RTVSPost2010Prop40
 90
        0
102
RTVSPost2010PropOp40
 70
     1
102
RTVSPost2010Prop41ColorIndex
 90
       18
102
RTVSPost2010Prop41ColorRGB
 90
        0
102
RTVSPost2010PropOp41
 70
     1
102
RTVSPost2010Prop42
 90
       50
102
RTVSPost2010PropOp42
 70
     1
102
RTVSPost2010Prop43
 90
        3
102
RTVSPost2010PropOp43
 70
     1
102
RTVSPost2010Prop44ColorIndex
 90
        5
102
RTVSPost2010Prop44ColorRGB
 90
      255
102
RTVSPost2010PropOp44
 70
     1
102
RTVSPost2010Prop45
280
     0
102
RTVSPost2010PropOp45
 70
     1
102
RTVSPost2010Prop46
 90
       50
102
RTVSPost2010PropOp46
 70
     1
102
RTVSPost2010Prop47
 90
       50
102
RTVSPost2010PropOp47
 70
     1
102
RTVSPost2010Prop48
 90
       50
102
RTVSPost2010PropOp48
 70
     1
102
RTVSPost2010Prop49
280
     0
102
RTVSPost2010PropOp49
 70
     1
102
RTVSPost2010Prop50
 90
       50
102
RTVSPost2010PropOp50
 70
     1
102
RTVSPost2010Prop51ColorIndex
 90
      256
102
RTVSPost2010Prop51ColorRGB
 90
-16777216
102
RTVSPost2010PropOp51
 70
     0
102
RTVSPost2010Prop52
140
1.0
102
RTVSPost2010PropOp52
 70
     0
102
RTVSPost2010Prop53
 90
        2
102
RTVSPost2010PropOp53
 70
     1
102
RTVSPost2010Prop54
  1
strokes_ogs.tif
102
RTVSPost2010PropOp54
 70
     1
102
RTVSPost2010Prop55
280
     0
102
RTVSPost2010PropOp55
 70
     1
102
RTVSPost2010Prop56
140
1.0
102
RTVSPost2010PropOp56
 70
     1
102
RTVSPost2010Prop57
140
1.0
102
RTVSPost2010PropOp57
 70
     1
  0
XRECORD
  5
2BA
102
{ACAD_REACTORS
330
2B9
102
}
330
2B9
100
AcDbXrecord
280
     1
102
RTVSPropertyOp0
 70
     1
102
RTVSPropertyOp1
 70
     1
102
RTVSPropertyOp2
 70
     1
102
RTVSPropertyOp3
 70
     1
102
RTVSPropertyOp4
 70
     1
102
RTVSPropertyOp5
 70
     1
102
RTVSPropertyOp6
 70
     1
102
RTVSPropertyOp7
 70
     1
102
RTVSPropertyOp8
 70
     1
102
RTVSPropertyOp9
 70
     1
102
RTVSPropertyOp10
 70
     1
102
RTVSPropertyOp11
 70
     1
102
RTVSPropertyOp12
 70
     1
102
RTVSPropertyOp13
 70
     1
102
RTVSPropertyOp14
 70
     1
102
RTVSPropertyOp15
 70
     1
102
RTVSPropertyOp16
 70
     1
102
RTVSPropertyOp17
 70
     1
102
RTVSPropertyOp18
 70
     1
102
RTVSPropertyOp19
 70
     1
102
RTVSPropertyOp20
 70
     1
102
RTVSPropertyOp21
 70
     1
102
RTVSPropertyOp22
 70
     1
102
RTVSPropertyOp23
 70
     1
102
RTVSPropertyOp24
 70
     1
102
RTVSPropertyOp25
 70
     1
102
RTVSPropertyOp26
 70
     1
102
RTVSPropertyOp27
 70
     1
102
RTVSPropertyOp28
 70
     1
102
RTVSPropertyOp29
 70
     1
102
RTVSPropertyOp30
 70
     1
102
RTVSPropertyOp31
 70
     1
102
RTVSPropertyOp32
 70
     1
102
RTVSPropertyOp33
 70
     1
102
RTVSPropertyOp34
 70
     1
102
RTVSPropertyOp35
 70
     1
102
RTVSPropertyOp36
 70
     1
102
RTVSPropertyOp37
 70
     1
102
RTVSPropertyOp38
 70
     1
102
RTVSPropertyOp39
 70
     1
102
RTVSPropertyOp40
 70
     1
102
RTVSPropertyOp41
 70
     1
102
RTVSPropertyOp42
 70
     1
102
RTVSPropertyOp43
 70
     1
102
RTVSPropertyOp44
 70
     1
102
RTVSPropertyOp45
 70
     1
102
RTVSPropertyOp46
 70
     1
102
RTVSPropertyOp47
 70
     1
102
RTVSPropertyOp48
 70
     1
102
RTVSPropertyOp49
 70
     1
102
RTVSPropertyOp50
 70
     1
102
RTVSPropertyOp51
 70
     0
102
RTVSPropertyOp52
 70
     0
102
RTVSPropertyOp53
 70
     1
102
RTVSPropertyOp54
 70
     1
102
RTVSPropertyOp55
 70
     1
102
RTVSPropertyOp56
 70
     1
102
RTVSPropertyOp57
 70
     1
102
RTVSPost2010Prop28
280
     0
102
RTVSPost2010PropOp28
 70
     1
102
RTVSPost2010Prop29
280
     1
102
RTVSPost2010PropOp29
 70
     1
102
RTVSPost2010Prop30
280
     1
102
RTVSPost2010PropOp30
 70
     1
102
RTVSPost2010Prop31
280
     0
102
RTVSPost2010PropOp31
 70
     1
102
RTVSPost2010Prop32
280
     0
102
RTVSPost2010PropOp32
 70
     1
102
RTVSPost2010Prop33
280
     0
102
RTVSPost2010PropOp33
 70
     1
102
RTVSPost2010Prop34
280
     0
102
RTVSPost2010PropOp34
 70
     1
102
RTVSPost2010Prop35
280
     0
102
RTVSPost2010PropOp35
 70
     1
102
RTVSPost2010Prop36
280
     0
102
RTVSPost2010PropOp36
 70
     1
102
RTVSPost2010Prop37
 90
       50
102
RTVSPost2010PropOp37
 70
     1
102
RTVSPost2010Prop38
140
0.0
102
RTVSPost2010PropOp38
 70
     1
102
RTVSPost2010Prop39
140
1.0
102
RTVSPost2010PropOp39
 70
     1
102
RTVSPost2010Prop40
 90
        0
102
RTVSPost2010PropOp40
 70
     1
102
RTVSPost2010Prop41ColorIndex
 90
       18
102
RTVSPost2010Prop41ColorRGB
 90
        0
102
RTVSPost2010PropOp41
 70
     1
102
RTVSPost2010Prop42
 90
       50
102
RTVSPost2010PropOp42
 70
     1
102
RTVSPost2010Prop43
 90
        3
102
RTVSPost2010PropOp43
 70
     1
102
RTVSPost2010Prop44ColorIndex
 90
        5
102
RTVSPost2010Prop44ColorRGB
 90
      255
102
RTVSPost2010PropOp44
 70
     1
102
RTVSPost2010Prop45
280
     0
102
RTVSPost2010PropOp45
 70
     1
102
RTVSPost2010Prop46
 90
       50
102
RTVSPost2010PropOp46
 70
     1
102
RTVSPost2010Prop47
 90
       50
102
RTVSPost2010PropOp47
 70
     1
102
RTVSPost2010Prop48
 90
       50
102
RTVSPost2010PropOp48
 70
     1
102
RTVSPost2010Prop49
280
     0
102
RTVSPost2010PropOp49
 70
     1
102
RTVSPost2010Prop50
 90
       50
102
RTVSPost2010PropOp50
 70
     1
102
RTVSPost2010Prop51ColorIndex
 90
      256
102
RTVSPost2010Prop51ColorRGB
 90
-16777216
102
RTVSPost2010PropOp51
 70
     0
102
RTVSPost2010Prop52
140
1.0
102
RTVSPost2010PropOp52
 70
     0
102
RTVSPost2010Prop53
 90
        2
102
RTVSPost2010PropOp53
 70
     1
102
RTVSPost2010Prop54
  1
strokes_ogs.tif
102
RTVSPost2010PropOp54
 70
     1
102
RTVSPost2010Prop55
280
     0
102
RTVSPost2010PropOp55
 70
     1
102
RTVSPost2010Prop56
140
1.0
102
RTVSPost2010PropOp56
 70
     1
102
RTVSPost2010Prop57
140
1.0
102
RTVSPost2010PropOp57
 70
     1
  0
XRECORD
  5
2CA
102
{ACAD_REACTORS
330
2C9
102
}
330
2C9
100
AcDbXrecord
280
     1
102
RTVSPropertyOp0
 70
     0
102
RTVSPropertyOp1
 70
     0
102
RTVSPropertyOp2
 70
     0
102
RTVSPropertyOp3
 70
     0
102
RTVSPropertyOp4
 70
     0
102
RTVSPropertyOp5
 70
     0
102
RTVSPropertyOp6
 70
     0
102
RTVSPropertyOp7
 70
     0
102
RTVSPropertyOp8
 70
     0
102
RTVSPropertyOp9
 70
     0
102
RTVSPropertyOp10
 70
     0
102
RTVSPropertyOp11
 70
     0
102
RTVSPropertyOp12
 70
     0
102
RTVSPropertyOp13
 70
     0
102
RTVSPropertyOp14
 70
     2
102
RTVSPropertyOp15
 70
     0
102
RTVSPropertyOp16
 70
     0
102
RTVSPropertyOp17
 70
     0
102
RTVSPropertyOp18
 70
     0
102
RTVSPropertyOp19
 70
     0
102
RTVSPropertyOp20
 70
     0
102
RTVSPropertyOp21
 70
     0
102
RTVSPropertyOp22
 70
     0
102
RTVSPropertyOp23
 70
     0
102
RTVSPropertyOp24
 70
     0
102
RTVSPropertyOp25
 70
     0
102
RTVSPropertyOp26
 70
     0
102
RTVSPropertyOp27
 70
     0
102
RTVSPropertyOp28
 70
     0
102
RTVSPropertyOp29
 70
     0
102
RTVSPropertyOp30
 70
     0
102
RTVSPropertyOp31
 70
     0
102
RTVSPropertyOp32
 70
     0
102
RTVSPropertyOp33
 70
     0
102
RTVSPropertyOp34
 70
     0
102
RTVSPropertyOp35
 70
     0
102
RTVSPropertyOp36
 70
     0
102
RTVSPropertyOp37
 70
     0
102
RTVSPropertyOp38
 70
     0
102
RTVSPropertyOp39
 70
     0
102
RTVSPropertyOp40
 70
     0
102
RTVSPropertyOp41
 70
     0
102
RTVSPropertyOp42
 70
     0
102
RTVSPropertyOp43
 70
     0
102
RTVSPropertyOp44
 70
     0
102
RTVSPropertyOp45
 70
     0
102
RTVSPropertyOp46
 70
     0
102
RTVSPropertyOp47
 70
     0
102
RTVSPropertyOp48
 70
     0
102
RTVSPropertyOp49
 70
     0
102
RTVSPropertyOp50
 70
     0
102
RTVSPropertyOp51
 70
     0
102
RTVSPropertyOp52
 70
     0
102
RTVSPropertyOp53
 70
     0
102
RTVSPropertyOp54
 70
     0
102
RTVSPropertyOp55
 70
     0
102
RTVSPropertyOp56
 70
     0
102
RTVSPropertyOp57
 70
     0
102
RTVSPost2010Prop28
280
     0
102
RTVSPost2010PropOp28
 70
     0
102
RTVSPost2010Prop29
280
     1
102
RTVSPost2010PropOp29
 70
     0
102
RTVSPost2010Prop30
280
     1
102
RTVSPost2010PropOp30
 70
     0
102
RTVSPost2010Prop31
280
     0
102
RTVSPost2010PropOp31
 70
     0
102
RTVSPost2010Prop32
280
     0
102
RTVSPost2010PropOp32
 70
     0
102
RTVSPost2010Prop33
280
     0
102
RTVSPost2010PropOp33
 70
     0
102
RTVSPost2010Prop34
280
     0
102
RTVSPost2010PropOp34
 70
     0
102
RTVSPost2010Prop35
280
     0
102
RTVSPost2010PropOp35
 70
     0
102
RTVSPost2010Prop36
280
     0
102
RTVSPost2010PropOp36
 70
     0
102
RTVSPost2010Prop37
 90
       50
102
RTVSPost2010PropOp37
 70
     0
102
RTVSPost2010Prop38
140
0.0
102
RTVSPost2010PropOp38
 70
     0
102
RTVSPost2010Prop39
140
1.0
102
RTVSPost2010PropOp39
 70
     0
102
RTVSPost2010Prop40
 90
        0
102
RTVSPost2010PropOp40
 70
     0
102
RTVSPost2010Prop41ColorIndex
 90
       18
102
RTVSPost2010Prop41ColorRGB
 90
        0
102
RTVSPost2010PropOp41
 70
     0
102
RTVSPost2010Prop42
 90
       50
102
RTVSPost2010PropOp42
 70
     0
102
RTVSPost2010Prop43
 90
        3
102
RTVSPost2010PropOp43
 70
     0
102
RTVSPost2010Prop44ColorIndex
 90
        5
102
RTVSPost2010Prop44ColorRGB
 90
      255
102
RTVSPost2010PropOp44
 70
     0
102
RTVSPost2010Prop45
280
     0
102
RTVSPost2010PropOp45
 70
     0
102
RTVSPost2010Prop46
 90
       50
102
RTVSPost2010PropOp46
 70
     0
102
RTVSPost2010Prop47
 90
       50
102
RTVSPost2010PropOp47
 70
     0
102
RTVSPost2010Prop48
 90
       50
102
RTVSPost2010PropOp48
 70
     0
102
RTVSPost2010Prop49
280
     0
102
RTVSPost2010PropOp49
 70
     0
102
RTVSPost2010Prop50
 90
       50
102
RTVSPost2010PropOp50
 70
     0
102
RTVSPost2010Prop51ColorIndex
 90
      256
102
RTVSPost2010Prop51ColorRGB
 90
-16777216
102
RTVSPost2010PropOp51
 70
     0
102
RTVSPost2010Prop52
140
1.0
102
RTVSPost2010PropOp52
 70
     0
102
RTVSPost2010Prop53
 90
        2
102
RTVSPost2010PropOp53
 70
     0
102
RTVSPost2010Prop54
  1
strokes_ogs.tif
102
RTVSPost2010PropOp54
 70
     0
102
RTVSPost2010Prop55
280
     0
102
RTVSPost2010PropOp55
 70
     0
102
RTVSPost2010Prop56
140
1.0
102
RTVSPost2010PropOp56
 70
     0
102
RTVSPost2010Prop57
140
1.0
102
RTVSPost2010PropOp57
 70
     0
  0
XRECORD
  5
2C2
102
{ACAD_REACTORS
330
2C1
102
}
330
2C1
100
AcDbXrecord
280
     1
102
RTVSPropertyOp0
 70
     1
102
RTVSPropertyOp1
 70
     1
102
RTVSPropertyOp2
 70
     1
102
RTVSPropertyOp3
 70
     1
102
RTVSPropertyOp4
 70
     1
102
RTVSPropertyOp5
 70
     1
102
RTVSPropertyOp6
 70
     1
102
RTVSPropertyOp7
 70
     1
102
RTVSPropertyOp8
 70
     1
102
RTVSPropertyOp9
 70
     1
102
RTVSPropertyOp10
 70
     1
102
RTVSPropertyOp11
 70
     1
102
RTVSPropertyOp12
 70
     1
102
RTVSPropertyOp13
 70
     1
102
RTVSPropertyOp14
 70
     1
102
RTVSPropertyOp15
 70
     1
102
RTVSPropertyOp16
 70
     1
102
RTVSPropertyOp17
 70
     1
102
RTVSPropertyOp18
 70
     1
102
RTVSPropertyOp19
 70
     1
102
RTVSPropertyOp20
 70
     1
102
RTVSPropertyOp21
 70
     1
102
RTVSPropertyOp22
 70
     1
102
RTVSPropertyOp23
 70
     1
102
RTVSPropertyOp24
 70
     1
102
RTVSPropertyOp25
 70
     1
102
RTVSPropertyOp26
 70
     1
102
RTVSPropertyOp27
 70
     1
102
RTVSPropertyOp28
 70
     1
102
RTVSPropertyOp29
 70
     1
102
RTVSPropertyOp30
 70
     1
102
RTVSPropertyOp31
 70
     1
102
RTVSPropertyOp32
 70
     1
102
RTVSPropertyOp33
 70
     1
102
RTVSPropertyOp34
 70
     1
102
RTVSPropertyOp35
 70
     1
102
RTVSPropertyOp36
 70
     1
102
RTVSPropertyOp37
 70
     1
102
RTVSPropertyOp38
 70
     1
102
RTVSPropertyOp39
 70
     1
102
RTVSPropertyOp40
 70
     1
102
RTVSPropertyOp41
 70
     1
102
RTVSPropertyOp42
 70
     1
102
RTVSPropertyOp43
 70
     1
102
RTVSPropertyOp44
 70
     1
102
RTVSPropertyOp45
 70
     1
102
RTVSPropertyOp46
 70
     1
102
RTVSPropertyOp47
 70
     1
102
RTVSPropertyOp48
 70
     1
102
RTVSPropertyOp49
 70
     1
102
RTVSPropertyOp50
 70
     1
102
RTVSPropertyOp51
 70
     0
102
RTVSPropertyOp52
 70
     0
102
RTVSPropertyOp53
 70
     1
102
RTVSPropertyOp54
 70
     1
102
RTVSPropertyOp55
 70
     1
102
RTVSPropertyOp56
 70
     1
102
RTVSPropertyOp57
 70
     1
102
RTVSPost2010Prop28
280
     0
102
RTVSPost2010PropOp28
 70
     1
102
RTVSPost2010Prop29
280
     1
102
RTVSPost2010PropOp29
 70
     1
102
RTVSPost2010Prop30
280
     1
102
RTVSPost2010PropOp30
 70
     1
102
RTVSPost2010Prop31
280
     0
102
RTVSPost2010PropOp31
 70
     1
102
RTVSPost2010Prop32
280
     0
102
RTVSPost2010PropOp32
 70
     1
102
RTVSPost2010Prop33
280
     0
102
RTVSPost2010PropOp33
 70
     1
102
RTVSPost2010Prop34
280
     0
102
RTVSPost2010PropOp34
 70
     1
102
RTVSPost2010Prop35
280
     0
102
RTVSPost2010PropOp35
 70
     1
102
RTVSPost2010Prop36
280
     0
102
RTVSPost2010PropOp36
 70
     1
102
RTVSPost2010Prop37
 90
       50
102
RTVSPost2010PropOp37
 70
     1
102
RTVSPost2010Prop38
140
0.0
102
RTVSPost2010PropOp38
 70
     1
102
RTVSPost2010Prop39
140
1.0
102
RTVSPost2010PropOp39
 70
     1
102
RTVSPost2010Prop40
 90
        0
102
RTVSPost2010PropOp40
 70
     1
102
RTVSPost2010Prop41ColorIndex
 90
       18
102
RTVSPost2010Prop41ColorRGB
 90
        0
102
RTVSPost2010PropOp41
 70
     1
102
RTVSPost2010Prop42
 90
       50
102
RTVSPost2010PropOp42
 70
     1
102
RTVSPost2010Prop43
 90
        3
102
RTVSPost2010PropOp43
 70
     1
102
RTVSPost2010Prop44ColorIndex
 90
        5
102
RTVSPost2010Prop44ColorRGB
 90
      255
102
RTVSPost2010PropOp44
 70
     1
102
RTVSPost2010Prop45
280
     0
102
RTVSPost2010PropOp45
 70
     1
102
RTVSPost2010Prop46
 90
       50
102
RTVSPost2010PropOp46
 70
     1
102
RTVSPost2010Prop47
 90
       50
102
RTVSPost2010PropOp47
 70
     1
102
RTVSPost2010Prop48
 90
       50
102
RTVSPost2010PropOp48
 70
     1
102
RTVSPost2010Prop49
280
     0
102
RTVSPost2010PropOp49
 70
     1
102
RTVSPost2010Prop50
 90
       50
102
RTVSPost2010PropOp50
 70
     1
102
RTVSPost2010Prop51ColorIndex
 90
      256
102
RTVSPost2010Prop51ColorRGB
 90
-16777216
102
RTVSPost2010PropOp51
 70
     0
102
RTVSPost2010Prop52
140
1.0
102
RTVSPost2010PropOp52
 70
     0
102
RTVSPost2010Prop53
 90
        2
102
RTVSPost2010PropOp53
 70
     1
102
RTVSPost2010Prop54
  1
strokes_ogs.tif
102
RTVSPost2010PropOp54
 70
     1
102
RTVSPost2010Prop55
280
     0
102
RTVSPost2010PropOp55
 70
     1
102
RTVSPost2010Prop56
140
1.0
102
RTVSPost2010PropOp56
 70
     1
102
RTVSPost2010Prop57
140
1.0
102
RTVSPost2010PropOp57
 70
     1
  0
XRECORD
  5
2A6
102
{ACAD_REACTORS
330
2A5
102
}
330
2A5
100
AcDbXrecord
280
     1
102
RTVSPropertyOp0
 70
     1
102
RTVSPropertyOp1
 70
     1
102
RTVSPropertyOp2
 70
     1
102
RTVSPropertyOp3
 70
     1
102
RTVSPropertyOp4
 70
     1
102
RTVSPropertyOp5
 70
     1
102
RTVSPropertyOp6
 70
     1
102
RTVSPropertyOp7
 70
     1
102
RTVSPropertyOp8
 70
     1
102
RTVSPropertyOp9
 70
     1
102
RTVSPropertyOp10
 70
     1
102
RTVSPropertyOp11
 70
     1
102
RTVSPropertyOp12
 70
     1
102
RTVSPropertyOp13
 70
     1
102
RTVSPropertyOp14
 70
     1
102
RTVSPropertyOp15
 70
     1
102
RTVSPropertyOp16
 70
     1
102
RTVSPropertyOp17
 70
     1
102
RTVSPropertyOp18
 70
     1
102
RTVSPropertyOp19
 70
     1
102
RTVSPropertyOp20
 70
     1
102
RTVSPropertyOp21
 70
     1
102
RTVSPropertyOp22
 70
     1
102
RTVSPropertyOp23
 70
     1
102
RTVSPropertyOp24
 70
     1
102
RTVSPropertyOp25
 70
     1
102
RTVSPropertyOp26
 70
     1
102
RTVSPropertyOp27
 70
     1
102
RTVSPropertyOp28
 70
     1
102
RTVSPropertyOp29
 70
     1
102
RTVSPropertyOp30
 70
     1
102
RTVSPropertyOp31
 70
     1
102
RTVSPropertyOp32
 70
     1
102
RTVSPropertyOp33
 70
     1
102
RTVSPropertyOp34
 70
     1
102
RTVSPropertyOp35
 70
     1
102
RTVSPropertyOp36
 70
     1
102
RTVSPropertyOp37
 70
     1
102
RTVSPropertyOp38
 70
     1
102
RTVSPropertyOp39
 70
     1
102
RTVSPropertyOp40
 70
     1
102
RTVSPropertyOp41
 70
     1
102
RTVSPropertyOp42
 70
     1
102
RTVSPropertyOp43
 70
     1
102
RTVSPropertyOp44
 70
     1
102
RTVSPropertyOp45
 70
     1
102
RTVSPropertyOp46
 70
     1
102
RTVSPropertyOp47
 70
     1
102
RTVSPropertyOp48
 70
     1
102
RTVSPropertyOp49
 70
     1
102
RTVSPropertyOp50
 70
     1
102
RTVSPropertyOp51
 70
     0
102
RTVSPropertyOp52
 70
     0
102
RTVSPropertyOp53
 70
     1
102
RTVSPropertyOp54
 70
     1
102
RTVSPropertyOp55
 70
     1
102
RTVSPropertyOp56
 70
     1
102
RTVSPropertyOp57
 70
     1
102
RTVSPost2010Prop28
280
     0
102
RTVSPost2010PropOp28
 70
     1
102
RTVSPost2010Prop29
280
     1
102
RTVSPost2010PropOp29
 70
     1
102
RTVSPost2010Prop30
280
     1
102
RTVSPost2010PropOp30
 70
     1
102
RTVSPost2010Prop31
280
     0
102
RTVSPost2010PropOp31
 70
     1
102
RTVSPost2010Prop32
280
     0
102
RTVSPost2010PropOp32
 70
     1
102
RTVSPost2010Prop33
280
     0
102
RTVSPost2010PropOp33
 70
     1
102
RTVSPost2010Prop34
280
     0
102
RTVSPost2010PropOp34
 70
     1
102
RTVSPost2010Prop35
280
     0
102
RTVSPost2010PropOp35
 70
     1
102
RTVSPost2010Prop36
280
     0
102
RTVSPost2010PropOp36
 70
     1
102
RTVSPost2010Prop37
 90
       50
102
RTVSPost2010PropOp37
 70
     1
102
RTVSPost2010Prop38
140
0.0
102
RTVSPost2010PropOp38
 70
     1
102
RTVSPost2010Prop39
140
1.0
102
RTVSPost2010PropOp39
 70
     1
102
RTVSPost2010Prop40
 90
        0
102
RTVSPost2010PropOp40
 70
     1
102
RTVSPost2010Prop41ColorIndex
 90
       18
102
RTVSPost2010Prop41ColorRGB
 90
        0
102
RTVSPost2010PropOp41
 70
     1
102
RTVSPost2010Prop42
 90
       50
102
RTVSPost2010PropOp42
 70
     1
102
RTVSPost2010Prop43
 90
        3
102
RTVSPost2010PropOp43
 70
     1
102
RTVSPost2010Prop44ColorIndex
 90
        5
102
RTVSPost2010Prop44ColorRGB
 90
      255
102
RTVSPost2010PropOp44
 70
     1
102
RTVSPost2010Prop45
280
     0
102
RTVSPost2010PropOp45
 70
     1
102
RTVSPost2010Prop46
 90
       50
102
RTVSPost2010PropOp46
 70
     1
102
RTVSPost2010Prop47
 90
       50
102
RTVSPost2010PropOp47
 70
     1
102
RTVSPost2010Prop48
 90
       50
102
RTVSPost2010PropOp48
 70
     1
102
RTVSPost2010Prop49
280
     0
102
RTVSPost2010PropOp49
 70
     1
102
RTVSPost2010Prop50
 90
       50
102
RTVSPost2010PropOp50
 70
     1
102
RTVSPost2010Prop51ColorIndex
 90
      256
102
RTVSPost2010Prop51ColorRGB
 90
-16777216
102
RTVSPost2010PropOp51
 70
     0
102
RTVSPost2010Prop52
140
1.0
102
RTVSPost2010PropOp52
 70
     0
102
RTVSPost2010Prop53
 90
        2
102
RTVSPost2010PropOp53
 70
     1
102
RTVSPost2010Prop54
  1
strokes_ogs.tif
102
RTVSPost2010PropOp54
 70
     1
102
RTVSPost2010Prop55
280
     0
102
RTVSPost2010PropOp55
 70
     1
102
RTVSPost2010Prop56
140
1.0
102
RTVSPost2010PropOp56
 70
     1
102
RTVSPost2010Prop57
140
1.0
102
RTVSPost2010PropOp57
 70
     1
  0
XRECORD
  5
2A8
102
{ACAD_REACTORS
330
2A7
102
}
330
2A7
100
AcDbXrecord
280
     1
102
RTVSPropertyOp0
 70
     1
102
RTVSPropertyOp1
 70
     1
102
RTVSPropertyOp2
 70
     1
102
RTVSPropertyOp3
 70
     1
102
RTVSPropertyOp4
 70
     1
102
RTVSPropertyOp5
 70
     1
102
RTVSPropertyOp6
 70
     1
102
RTVSPropertyOp7
 70
     1
102
RTVSPropertyOp8
 70
     1
102
RTVSPropertyOp9
 70
     1
102
RTVSPropertyOp10
 70
     1
102
RTVSPropertyOp11
 70
     1
102
RTVSPropertyOp12
 70
     1
102
RTVSPropertyOp13
 70
     1
102
RTVSPropertyOp14
 70
     1
102
RTVSPropertyOp15
 70
     1
102
RTVSPropertyOp16
 70
     1
102
RTVSPropertyOp17
 70
     1
102
RTVSPropertyOp18
 70
     1
102
RTVSPropertyOp19
 70
     1
102
RTVSPropertyOp20
 70
     1
102
RTVSPropertyOp21
 70
     1
102
RTVSPropertyOp22
 70
     1
102
RTVSPropertyOp23
 70
     1
102
RTVSPropertyOp24
 70
     1
102
RTVSPropertyOp25
 70
     1
102
RTVSPropertyOp26
 70
     1
102
RTVSPropertyOp27
 70
     1
102
RTVSPropertyOp28
 70
     1
102
RTVSPropertyOp29
 70
     1
102
RTVSPropertyOp30
 70
     1
102
RTVSPropertyOp31
 70
     1
102
RTVSPropertyOp32
 70
     1
102
RTVSPropertyOp33
 70
     1
102
RTVSPropertyOp34
 70
     1
102
RTVSPropertyOp35
 70
     1
102
RTVSPropertyOp36
 70
     1
102
RTVSPropertyOp37
 70
     1
102
RTVSPropertyOp38
 70
     1
102
RTVSPropertyOp39
 70
     1
102
RTVSPropertyOp40
 70
     1
102
RTVSPropertyOp41
 70
     1
102
RTVSPropertyOp42
 70
     1
102
RTVSPropertyOp43
 70
     1
102
RTVSPropertyOp44
 70
     1
102
RTVSPropertyOp45
 70
     1
102
RTVSPropertyOp46
 70
     1
102
RTVSPropertyOp47
 70
     1
102
RTVSPropertyOp48
 70
     1
102
RTVSPropertyOp49
 70
     1
102
RTVSPropertyOp50
 70
     1
102
RTVSPropertyOp51
 70
     0
102
RTVSPropertyOp52
 70
     0
102
RTVSPropertyOp53
 70
     1
102
RTVSPropertyOp54
 70
     1
102
RTVSPropertyOp55
 70
     1
102
RTVSPropertyOp56
 70
     1
102
RTVSPropertyOp57
 70
     1
102
RTVSPost2010Prop28
280
     0
102
RTVSPost2010PropOp28
 70
     1
102
RTVSPost2010Prop29
280
     1
102
RTVSPost2010PropOp29
 70
     1
102
RTVSPost2010Prop30
280
     1
102
RTVSPost2010PropOp30
 70
     1
102
RTVSPost2010Prop31
280
     0
102
RTVSPost2010PropOp31
 70
     1
102
RTVSPost2010Prop32
280
     0
102
RTVSPost2010PropOp32
 70
     1
102
RTVSPost2010Prop33
280
     0
102
RTVSPost2010PropOp33
 70
     1
102
RTVSPost2010Prop34
280
     0
102
RTVSPost2010PropOp34
 70
     1
102
RTVSPost2010Prop35
280
     0
102
RTVSPost2010PropOp35
 70
     1
102
RTVSPost2010Prop36
280
     0
102
RTVSPost2010PropOp36
 70
     1
102
RTVSPost2010Prop37
 90
       50
102
RTVSPost2010PropOp37
 70
     1
102
RTVSPost2010Prop38
140
0.0
102
RTVSPost2010PropOp38
 70
     1
102
RTVSPost2010Prop39
140
1.0
102
RTVSPost2010PropOp39
 70
     1
102
RTVSPost2010Prop40
 90
        0
102
RTVSPost2010PropOp40
 70
     1
102
RTVSPost2010Prop41ColorIndex
 90
       18
102
RTVSPost2010Prop41ColorRGB
 90
        0
102
RTVSPost2010PropOp41
 70
     1
102
RTVSPost2010Prop42
 90
       50
102
RTVSPost2010PropOp42
 70
     1
102
RTVSPost2010Prop43
 90
        3
102
RTVSPost2010PropOp43
 70
     1
102
RTVSPost2010Prop44ColorIndex
 90
        5
102
RTVSPost2010Prop44ColorRGB
 90
      255
102
RTVSPost2010PropOp44
 70
     1
102
RTVSPost2010Prop45
280
     0
102
RTVSPost2010PropOp45
 70
     1
102
RTVSPost2010Prop46
 90
       50
102
RTVSPost2010PropOp46
 70
     1
102
RTVSPost2010Prop47
 90
       50
102
RTVSPost2010PropOp47
 70
     1
102
RTVSPost2010Prop48
 90
       50
102
RTVSPost2010PropOp48
 70
     1
102
RTVSPost2010Prop49
280
     0
102
RTVSPost2010PropOp49
 70
     1
102
RTVSPost2010Prop50
 90
       50
102
RTVSPost2010PropOp50
 70
     1
102
RTVSPost2010Prop51ColorIndex
 90
      256
102
RTVSPost2010Prop51ColorRGB
 90
-16777216
102
RTVSPost2010PropOp51
 70
     0
102
RTVSPost2010Prop52
140
1.0
102
RTVSPost2010PropOp52
 70
     0
102
RTVSPost2010Prop53
 90
        2
102
RTVSPost2010PropOp53
 70
     1
102
RTVSPost2010Prop54
  1
strokes_ogs.tif
102
RTVSPost2010PropOp54
 70
     1
102
RTVSPost2010Prop55
280
     0
102
RTVSPost2010PropOp55
 70
     1
102
RTVSPost2010Prop56
140
1.0
102
RTVSPost2010PropOp56
 70
     1
102
RTVSPost2010Prop57
140
1.0
102
RTVSPost2010PropOp57
 70
     1
  0
XRECORD
  5
2AA
102
{ACAD_REACTORS
330
2A9
102
}
330
2A9
100
AcDbXrecord
280
     1
102
RTVSPropertyOp0
 70
     1
102
RTVSPropertyOp1
 70
     1
102
RTVSPropertyOp2
 70
     1
102
RTVSPropertyOp3
 70
     1
102
RTVSPropertyOp4
 70
     1
102
RTVSPropertyOp5
 70
     1
102
RTVSPropertyOp6
 70
     1
102
RTVSPropertyOp7
 70
     1
102
RTVSPropertyOp8
 70
     1
102
RTVSPropertyOp9
 70
     1
102
RTVSPropertyOp10
 70
     1
102
RTVSPropertyOp11
 70
     1
102
RTVSPropertyOp12
 70
     1
102
RTVSPropertyOp13
 70
     1
102
RTVSPropertyOp14
 70
     1
102
RTVSPropertyOp15
 70
     1
102
RTVSPropertyOp16
 70
     1
102
RTVSPropertyOp17
 70
     1
102
RTVSPropertyOp18
 70
     1
102
RTVSPropertyOp19
 70
     1
102
RTVSPropertyOp20
 70
     1
102
RTVSPropertyOp21
 70
     1
102
RTVSPropertyOp22
 70
     1
102
RTVSPropertyOp23
 70
     1
102
RTVSPropertyOp24
 70
     1
102
RTVSPropertyOp25
 70
     1
102
RTVSPropertyOp26
 70
     1
102
RTVSPropertyOp27
 70
     1
102
RTVSPropertyOp28
 70
     1
102
RTVSPropertyOp29
 70
     1
102
RTVSPropertyOp30
 70
     1
102
RTVSPropertyOp31
 70
     1
102
RTVSPropertyOp32
 70
     1
102
RTVSPropertyOp33
 70
     1
102
RTVSPropertyOp34
 70
     1
102
RTVSPropertyOp35
 70
     1
102
RTVSPropertyOp36
 70
     1
102
RTVSPropertyOp37
 70
     1
102
RTVSPropertyOp38
 70
     1
102
RTVSPropertyOp39
 70
     1
102
RTVSPropertyOp40
 70
     1
102
RTVSPropertyOp41
 70
     1
102
RTVSPropertyOp42
 70
     1
102
RTVSPropertyOp43
 70
     1
102
RTVSPropertyOp44
 70
     1
102
RTVSPropertyOp45
 70
     1
102
RTVSPropertyOp46
 70
     1
102
RTVSPropertyOp47
 70
     1
102
RTVSPropertyOp48
 70
     1
102
RTVSPropertyOp49
 70
     1
102
RTVSPropertyOp50
 70
     1
102
RTVSPropertyOp51
 70
     0
102
RTVSPropertyOp52
 70
     0
102
RTVSPropertyOp53
 70
     1
102
RTVSPropertyOp54
 70
     1
102
RTVSPropertyOp55
 70
     1
102
RTVSPropertyOp56
 70
     1
102
RTVSPropertyOp57
 70
     1
102
RTVSPost2010Prop28
280
     0
102
RTVSPost2010PropOp28
 70
     1
102
RTVSPost2010Prop29
280
     1
102
RTVSPost2010PropOp29
 70
     1
102
RTVSPost2010Prop30
280
     1
102
RTVSPost2010PropOp30
 70
     1
102
RTVSPost2010Prop31
280
     0
102
RTVSPost2010PropOp31
 70
     1
102
RTVSPost2010Prop32
280
     0
102
RTVSPost2010PropOp32
 70
     1
102
RTVSPost2010Prop33
280
     0
102
RTVSPost2010PropOp33
 70
     1
102
RTVSPost2010Prop34
280
     0
102
RTVSPost2010PropOp34
 70
     1
102
RTVSPost2010Prop35
280
     0
102
RTVSPost2010PropOp35
 70
     1
102
RTVSPost2010Prop36
280
     0
102
RTVSPost2010PropOp36
 70
     1
102
RTVSPost2010Prop37
 90
       50
102
RTVSPost2010PropOp37
 70
     1
102
RTVSPost2010Prop38
140
0.0
102
RTVSPost2010PropOp38
 70
     1
102
RTVSPost2010Prop39
140
1.0
102
RTVSPost2010PropOp39
 70
     1
102
RTVSPost2010Prop40
 90
        0
102
RTVSPost2010PropOp40
 70
     1
102
RTVSPost2010Prop41ColorIndex
 90
       18
102
RTVSPost2010Prop41ColorRGB
 90
        0
102
RTVSPost2010PropOp41
 70
     1
102
RTVSPost2010Prop42
 90
       50
102
RTVSPost2010PropOp42
 70
     1
102
RTVSPost2010Prop43
 90
        3
102
RTVSPost2010PropOp43
 70
     1
102
RTVSPost2010Prop44ColorIndex
 90
        5
102
RTVSPost2010Prop44ColorRGB
 90
      255
102
RTVSPost2010PropOp44
 70
     1
102
RTVSPost2010Prop45
280
     0
102
RTVSPost2010PropOp45
 70
     1
102
RTVSPost2010Prop46
 90
       50
102
RTVSPost2010PropOp46
 70
     1
102
RTVSPost2010Prop47
 90
       50
102
RTVSPost2010PropOp47
 70
     1
102
RTVSPost2010Prop48
 90
       50
102
RTVSPost2010PropOp48
 70
     1
102
RTVSPost2010Prop49
280
     0
102
RTVSPost2010PropOp49
 70
     1
102
RTVSPost2010Prop50
 90
       50
102
RTVSPost2010PropOp50
 70
     1
102
RTVSPost2010Prop51ColorIndex
 90
      256
102
RTVSPost2010Prop51ColorRGB
 90
-16777216
102
RTVSPost2010PropOp51
 70
     0
102
RTVSPost2010Prop52
140
1.0
102
RTVSPost2010PropOp52
 70
     0
102
RTVSPost2010Prop53
 90
        2
102
RTVSPost2010PropOp53
 70
     1
102
RTVSPost2010Prop54
  1
strokes_ogs.tif
102
RTVSPost2010PropOp54
 70
     1
102
RTVSPost2010Prop55
280
     0
102
RTVSPost2010PropOp55
 70
     1
102
RTVSPost2010Prop56
140
1.0
102
RTVSPost2010PropOp56
 70
     1
102
RTVSPost2010Prop57
140
1.0
102
RTVSPost2010PropOp57
 70
     1
  0
XRECORD
  5
2AC
102
{ACAD_REACTORS
330
2AB
102
}
330
2AB
100
AcDbXrecord
280
     1
102
RTVSPropertyOp0
 70
     1
102
RTVSPropertyOp1
 70
     1
102
RTVSPropertyOp2
 70
     1
102
RTVSPropertyOp3
 70
     1
102
RTVSPropertyOp4
 70
     1
102
RTVSPropertyOp5
 70
     1
102
RTVSPropertyOp6
 70
     1
102
RTVSPropertyOp7
 70
     1
102
RTVSPropertyOp8
 70
     1
102
RTVSPropertyOp9
 70
     1
102
RTVSPropertyOp10
 70
     1
102
RTVSPropertyOp11
 70
     1
102
RTVSPropertyOp12
 70
     1
102
RTVSPropertyOp13
 70
     1
102
RTVSPropertyOp14
 70
     1
102
RTVSPropertyOp15
 70
     1
102
RTVSPropertyOp16
 70
     1
102
RTVSPropertyOp17
 70
     1
102
RTVSPropertyOp18
 70
     1
102
RTVSPropertyOp19
 70
     1
102
RTVSPropertyOp20
 70
     1
102
RTVSPropertyOp21
 70
     1
102
RTVSPropertyOp22
 70
     1
102
RTVSPropertyOp23
 70
     1
102
RTVSPropertyOp24
 70
     1
102
RTVSPropertyOp25
 70
     1
102
RTVSPropertyOp26
 70
     1
102
RTVSPropertyOp27
 70
     1
102
RTVSPropertyOp28
 70
     1
102
RTVSPropertyOp29
 70
     1
102
RTVSPropertyOp30
 70
     1
102
RTVSPropertyOp31
 70
     1
102
RTVSPropertyOp32
 70
     1
102
RTVSPropertyOp33
 70
     1
102
RTVSPropertyOp34
 70
     1
102
RTVSPropertyOp35
 70
     1
102
RTVSPropertyOp36
 70
     1
102
RTVSPropertyOp37
 70
     1
102
RTVSPropertyOp38
 70
     1
102
RTVSPropertyOp39
 70
     1
102
RTVSPropertyOp40
 70
     1
102
RTVSPropertyOp41
 70
     1
102
RTVSPropertyOp42
 70
     1
102
RTVSPropertyOp43
 70
     1
102
RTVSPropertyOp44
 70
     1
102
RTVSPropertyOp45
 70
     1
102
RTVSPropertyOp46
 70
     1
102
RTVSPropertyOp47
 70
     1
102
RTVSPropertyOp48
 70
     1
102
RTVSPropertyOp49
 70
     1
102
RTVSPropertyOp50
 70
     1
102
RTVSPropertyOp51
 70
     0
102
RTVSPropertyOp52
 70
     0
102
RTVSPropertyOp53
 70
     1
102
RTVSPropertyOp54
 70
     1
102
RTVSPropertyOp55
 70
     1
102
RTVSPropertyOp56
 70
     1
102
RTVSPropertyOp57
 70
     1
102
RTVSPost2010Prop28
280
     0
102
RTVSPost2010PropOp28
 70
     1
102
RTVSPost2010Prop29
280
     1
102
RTVSPost2010PropOp29
 70
     1
102
RTVSPost2010Prop30
280
     1
102
RTVSPost2010PropOp30
 70
     1
102
RTVSPost2010Prop31
280
     0
102
RTVSPost2010PropOp31
 70
     1
102
RTVSPost2010Prop32
280
     0
102
RTVSPost2010PropOp32
 70
     1
102
RTVSPost2010Prop33
280
     0
102
RTVSPost2010PropOp33
 70
     1
102
RTVSPost2010Prop34
280
     0
102
RTVSPost2010PropOp34
 70
     1
102
RTVSPost2010Prop35
280
     0
102
RTVSPost2010PropOp35
 70
     1
102
RTVSPost2010Prop36
280
     0
102
RTVSPost2010PropOp36
 70
     1
102
RTVSPost2010Prop37
 90
       50
102
RTVSPost2010PropOp37
 70
     1
102
RTVSPost2010Prop38
140
0.0
102
RTVSPost2010PropOp38
 70
     1
102
RTVSPost2010Prop39
140
1.0
102
RTVSPost2010PropOp39
 70
     1
102
RTVSPost2010Prop40
 90
        0
102
RTVSPost2010PropOp40
 70
     1
102
RTVSPost2010Prop41ColorIndex
 90
       18
102
RTVSPost2010Prop41ColorRGB
 90
        0
102
RTVSPost2010PropOp41
 70
     1
102
RTVSPost2010Prop42
 90
       50
102
RTVSPost2010PropOp42
 70
     1
102
RTVSPost2010Prop43
 90
        3
102
RTVSPost2010PropOp43
 70
     1
102
RTVSPost2010Prop44ColorIndex
 90
        5
102
RTVSPost2010Prop44ColorRGB
 90
      255
102
RTVSPost2010PropOp44
 70
     1
102
RTVSPost2010Prop45
280
     0
102
RTVSPost2010PropOp45
 70
     1
102
RTVSPost2010Prop46
 90
       50
102
RTVSPost2010PropOp46
 70
     1
102
RTVSPost2010Prop47
 90
       50
102
RTVSPost2010PropOp47
 70
     1
102
RTVSPost2010Prop48
 90
       50
102
RTVSPost2010PropOp48
 70
     1
102
RTVSPost2010Prop49
280
     0
102
RTVSPost2010PropOp49
 70
     1
102
RTVSPost2010Prop50
 90
       50
102
RTVSPost2010PropOp50
 70
     1
102
RTVSPost2010Prop51ColorIndex
 90
      256
102
RTVSPost2010Prop51ColorRGB
 90
-16777216
102
RTVSPost2010PropOp51
 70
     0
102
RTVSPost2010Prop52
140
1.0
102
RTVSPost2010PropOp52
 70
     0
102
RTVSPost2010Prop53
 90
        2
102
RTVSPost2010PropOp53
 70
     1
102
RTVSPost2010Prop54
  1
strokes_ogs.tif
102
RTVSPost2010PropOp54
 70
     1
102
RTVSPost2010Prop55
280
     0
102
RTVSPost2010PropOp55
 70
     1
102
RTVSPost2010Prop56
140
1.0
102
RTVSPost2010PropOp56
 70
     1
102
RTVSPost2010Prop57
140
1.0
102
RTVSPost2010PropOp57
 70
     1
  0
XRECORD
  5
2B2
102
{ACAD_REACTORS
330
2B1
102
}
330
2B1
100
AcDbXrecord
280
     1
102
RTVSPropertyOp0
 70
     1
102
RTVSPropertyOp1
 70
     1
102
RTVSPropertyOp2
 70
     1
102
RTVSPropertyOp3
 70
     1
102
RTVSPropertyOp4
 70
     1
102
RTVSPropertyOp5
 70
     1
102
RTVSPropertyOp6
 70
     1
102
RTVSPropertyOp7
 70
     1
102
RTVSPropertyOp8
 70
     1
102
RTVSPropertyOp9
 70
     1
102
RTVSPropertyOp10
 70
     1
102
RTVSPropertyOp11
 70
     1
102
RTVSPropertyOp12
 70
     1
102
RTVSPropertyOp13
 70
     1
102
RTVSPropertyOp14
 70
     1
102
RTVSPropertyOp15
 70
     1
102
RTVSPropertyOp16
 70
     1
102
RTVSPropertyOp17
 70
     1
102
RTVSPropertyOp18
 70
     1
102
RTVSPropertyOp19
 70
     1
102
RTVSPropertyOp20
 70
     1
102
RTVSPropertyOp21
 70
     1
102
RTVSPropertyOp22
 70
     1
102
RTVSPropertyOp23
 70
     1
102
RTVSPropertyOp24
 70
     1
102
RTVSPropertyOp25
 70
     1
102
RTVSPropertyOp26
 70
     1
102
RTVSPropertyOp27
 70
     1
102
RTVSPropertyOp28
 70
     1
102
RTVSPropertyOp29
 70
     1
102
RTVSPropertyOp30
 70
     1
102
RTVSPropertyOp31
 70
     1
102
RTVSPropertyOp32
 70
     1
102
RTVSPropertyOp33
 70
     1
102
RTVSPropertyOp34
 70
     1
102
RTVSPropertyOp35
 70
     1
102
RTVSPropertyOp36
 70
     1
102
RTVSPropertyOp37
 70
     1
102
RTVSPropertyOp38
 70
     1
102
RTVSPropertyOp39
 70
     1
102
RTVSPropertyOp40
 70
     1
102
RTVSPropertyOp41
 70
     1
102
RTVSPropertyOp42
 70
     1
102
RTVSPropertyOp43
 70
     1
102
RTVSPropertyOp44
 70
     1
102
RTVSPropertyOp45
 70
     1
102
RTVSPropertyOp46
 70
     1
102
RTVSPropertyOp47
 70
     1
102
RTVSPropertyOp48
 70
     1
102
RTVSPropertyOp49
 70
     1
102
RTVSPropertyOp50
 70
     1
102
RTVSPropertyOp51
 70
     0
102
RTVSPropertyOp52
 70
     0
102
RTVSPropertyOp53
 70
     1
102
RTVSPropertyOp54
 70
     1
102
RTVSPropertyOp55
 70
     1
102
RTVSPropertyOp56
 70
     1
102
RTVSPropertyOp57
 70
     1
102
RTVSPost2010Prop28
280
     0
102
RTVSPost2010PropOp28
 70
     1
102
RTVSPost2010Prop29
280
     1
102
RTVSPost2010PropOp29
 70
     1
102
RTVSPost2010Prop30
280
     1
102
RTVSPost2010PropOp30
 70
     1
102
RTVSPost2010Prop31
280
     0
102
RTVSPost2010PropOp31
 70
     1
102
RTVSPost2010Prop32
280
     0
102
RTVSPost2010PropOp32
 70
     1
102
RTVSPost2010Prop33
280
     0
102
RTVSPost2010PropOp33
 70
     1
102
RTVSPost2010Prop34
280
     0
102
RTVSPost2010PropOp34
 70
     1
102
RTVSPost2010Prop35
280
     0
102
RTVSPost2010PropOp35
 70
     1
102
RTVSPost2010Prop36
280
     0
102
RTVSPost2010PropOp36
 70
     1
102
RTVSPost2010Prop37
 90
       50
102
RTVSPost2010PropOp37
 70
     1
102
RTVSPost2010Prop38
140
0.0
102
RTVSPost2010PropOp38
 70
     1
102
RTVSPost2010Prop39
140
1.0
102
RTVSPost2010PropOp39
 70
     1
102
RTVSPost2010Prop40
 90
        0
102
RTVSPost2010PropOp40
 70
     1
102
RTVSPost2010Prop41ColorIndex
 90
       18
102
RTVSPost2010Prop41ColorRGB
 90
        0
102
RTVSPost2010PropOp41
 70
     1
102
RTVSPost2010Prop42
 90
       50
102
RTVSPost2010PropOp42
 70
     1
102
RTVSPost2010Prop43
 90
        3
102
RTVSPost2010PropOp43
 70
     1
102
RTVSPost2010Prop44ColorIndex
 90
        5
102
RTVSPost2010Prop44ColorRGB
 90
      255
102
RTVSPost2010PropOp44
 70
     1
102
RTVSPost2010Prop45
280
     0
102
RTVSPost2010PropOp45
 70
     1
102
RTVSPost2010Prop46
 90
       50
102
RTVSPost2010PropOp46
 70
     1
102
RTVSPost2010Prop47
 90
       50
102
RTVSPost2010PropOp47
 70
     1
102
RTVSPost2010Prop48
 90
       50
102
RTVSPost2010PropOp48
 70
     1
102
RTVSPost2010Prop49
280
     0
102
RTVSPost2010PropOp49
 70
     1
102
RTVSPost2010Prop50
 90
       50
102
RTVSPost2010PropOp50
 70
     1
102
RTVSPost2010Prop51ColorIndex
 90
      256
102
RTVSPost2010Prop51ColorRGB
 90
-16777216
102
RTVSPost2010PropOp51
 70
     0
102
RTVSPost2010Prop52
140
1.0
102
RTVSPost2010PropOp52
 70
     0
102
RTVSPost2010Prop53
 90
        2
102
RTVSPost2010PropOp53
 70
     1
102
RTVSPost2010Prop54
  1
strokes_ogs.tif
102
RTVSPost2010PropOp54
 70
     1
102
RTVSPost2010Prop55
280
     0
102
RTVSPost2010PropOp55
 70
     1
102
RTVSPost2010Prop56
140
1.0
102
RTVSPost2010PropOp56
 70
     1
102
RTVSPost2010Prop57
140
1.0
102
RTVSPost2010PropOp57
 70
     1
  0
XRECORD
  5
2C6
102
{ACAD_REACTORS
330
2C5
102
}
330
2C5
100
AcDbXrecord
280
     1
102
RTVSPropertyOp0
 70
     0
102
RTVSPropertyOp1
 70
     0
102
RTVSPropertyOp2
 70
     0
102
RTVSPropertyOp3
 70
     0
102
RTVSPropertyOp4
 70
     0
102
RTVSPropertyOp5
 70
     0
102
RTVSPropertyOp6
 70
     0
102
RTVSPropertyOp7
 70
     0
102
RTVSPropertyOp8
 70
     0
102
RTVSPropertyOp9
 70
     0
102
RTVSPropertyOp10
 70
     0
102
RTVSPropertyOp11
 70
     0
102
RTVSPropertyOp12
 70
     0
102
RTVSPropertyOp13
 70
     0
102
RTVSPropertyOp14
 70
     2
102
RTVSPropertyOp15
 70
     0
102
RTVSPropertyOp16
 70
     0
102
RTVSPropertyOp17
 70
     0
102
RTVSPropertyOp18
 70
     0
102
RTVSPropertyOp19
 70
     0
102
RTVSPropertyOp20
 70
     0
102
RTVSPropertyOp21
 70
     0
102
RTVSPropertyOp22
 70
     0
102
RTVSPropertyOp23
 70
     0
102
RTVSPropertyOp24
 70
     0
102
RTVSPropertyOp25
 70
     0
102
RTVSPropertyOp26
 70
     0
102
RTVSPropertyOp27
 70
     0
102
RTVSPropertyOp28
 70
     0
102
RTVSPropertyOp29
 70
     0
102
RTVSPropertyOp30
 70
     0
102
RTVSPropertyOp31
 70
     0
102
RTVSPropertyOp32
 70
     0
102
RTVSPropertyOp33
 70
     0
102
RTVSPropertyOp34
 70
     0
102
RTVSPropertyOp35
 70
     0
102
RTVSPropertyOp36
 70
     0
102
RTVSPropertyOp37
 70
     0
102
RTVSPropertyOp38
 70
     0
102
RTVSPropertyOp39
 70
     0
102
RTVSPropertyOp40
 70
     0
102
RTVSPropertyOp41
 70
     0
102
RTVSPropertyOp42
 70
     0
102
RTVSPropertyOp43
 70
     0
102
RTVSPropertyOp44
 70
     0
102
RTVSPropertyOp45
 70
     0
102
RTVSPropertyOp46
 70
     0
102
RTVSPropertyOp47
 70
     0
102
RTVSPropertyOp48
 70
     0
102
RTVSPropertyOp49
 70
     0
102
RTVSPropertyOp50
 70
     0
102
RTVSPropertyOp51
 70
     0
102
RTVSPropertyOp52
 70
     0
102
RTVSPropertyOp53
 70
     0
102
RTVSPropertyOp54
 70
     0
102
RTVSPropertyOp55
 70
     0
102
RTVSPropertyOp56
 70
     0
102
RTVSPropertyOp57
 70
     0
102
RTVSPost2010Prop28
280
     0
102
RTVSPost2010PropOp28
 70
     0
102
RTVSPost2010Prop29
280
     1
102
RTVSPost2010PropOp29
 70
     0
102
RTVSPost2010Prop30
280
     1
102
RTVSPost2010PropOp30
 70
     0
102
RTVSPost2010Prop31
280
     0
102
RTVSPost2010PropOp31
 70
     0
102
RTVSPost2010Prop32
280
     0
102
RTVSPost2010PropOp32
 70
     0
102
RTVSPost2010Prop33
280
     0
102
RTVSPost2010PropOp33
 70
     0
102
RTVSPost2010Prop34
280
     0
102
RTVSPost2010PropOp34
 70
     0
102
RTVSPost2010Prop35
280
     0
102
RTVSPost2010PropOp35
 70
     0
102
RTVSPost2010Prop36
280
     0
102
RTVSPost2010PropOp36
 70
     0
102
RTVSPost2010Prop37
 90
       50
102
RTVSPost2010PropOp37
 70
     0
102
RTVSPost2010Prop38
140
0.0
102
RTVSPost2010PropOp38
 70
     0
102
RTVSPost2010Prop39
140
1.0
102
RTVSPost2010PropOp39
 70
     0
102
RTVSPost2010Prop40
 90
        0
102
RTVSPost2010PropOp40
 70
     0
102
RTVSPost2010Prop41ColorIndex
 90
       18
102
RTVSPost2010Prop41ColorRGB
 90
        0
102
RTVSPost2010PropOp41
 70
     0
102
RTVSPost2010Prop42
 90
       50
102
RTVSPost2010PropOp42
 70
     0
102
RTVSPost2010Prop43
 90
        3
102
RTVSPost2010PropOp43
 70
     0
102
RTVSPost2010Prop44ColorIndex
 90
        5
102
RTVSPost2010Prop44ColorRGB
 90
      255
102
RTVSPost2010PropOp44
 70
     0
102
RTVSPost2010Prop45
280
     0
102
RTVSPost2010PropOp45
 70
     0
102
RTVSPost2010Prop46
 90
       50
102
RTVSPost2010PropOp46
 70
     0
102
RTVSPost2010Prop47
 90
       50
102
RTVSPost2010PropOp47
 70
     0
102
RTVSPost2010Prop48
 90
       50
102
RTVSPost2010PropOp48
 70
     0
102
RTVSPost2010Prop49
280
     0
102
RTVSPost2010PropOp49
 70
     0
102
RTVSPost2010Prop50
 90
       50
102
RTVSPost2010PropOp50
 70
     0
102
RTVSPost2010Prop51ColorIndex
 90
      256
102
RTVSPost2010Prop51ColorRGB
 90
-16777216
102
RTVSPost2010PropOp51
 70
     0
102
RTVSPost2010Prop52
140
1.0
102
RTVSPost2010PropOp52
 70
     0
102
RTVSPost2010Prop53
 90
        2
102
RTVSPost2010PropOp53
 70
     0
102
RTVSPost2010Prop54
  1
strokes_ogs.tif
102
RTVSPost2010PropOp54
 70
     0
102
RTVSPost2010Prop55
280
     0
102
RTVSPost2010PropOp55
 70
     0
102
RTVSPost2010Prop56
140
1.0
102
RTVSPost2010PropOp56
 70
     0
102
RTVSPost2010Prop57
140
1.0
102
RTVSPost2010PropOp57
 70
     0
  0
XRECORD
  5
2C0
102
{ACAD_REACTORS
330
2BF
102
}
330
2BF
100
AcDbXrecord
280
     1
102
RTVSPropertyOp0
 70
     1
102
RTVSPropertyOp1
 70
     1
102
RTVSPropertyOp2
 70
     1
102
RTVSPropertyOp3
 70
     1
102
RTVSPropertyOp4
 70
     1
102
RTVSPropertyOp5
 70
     1
102
RTVSPropertyOp6
 70
     1
102
RTVSPropertyOp7
 70
     1
102
RTVSPropertyOp8
 70
     1
102
RTVSPropertyOp9
 70
     1
102
RTVSPropertyOp10
 70
     1
102
RTVSPropertyOp11
 70
     1
102
RTVSPropertyOp12
 70
     1
102
RTVSPropertyOp13
 70
     1
102
RTVSPropertyOp14
 70
     1
102
RTVSPropertyOp15
 70
     1
102
RTVSPropertyOp16
 70
     1
102
RTVSPropertyOp17
 70
     1
102
RTVSPropertyOp18
 70
     1
102
RTVSPropertyOp19
 70
     1
102
RTVSPropertyOp20
 70
     1
102
RTVSPropertyOp21
 70
     1
102
RTVSPropertyOp22
 70
     1
102
RTVSPropertyOp23
 70
     1
102
RTVSPropertyOp24
 70
     1
102
RTVSPropertyOp25
 70
     1
102
RTVSPropertyOp26
 70
     1
102
RTVSPropertyOp27
 70
     1
102
RTVSPropertyOp28
 70
     1
102
RTVSPropertyOp29
 70
     1
102
RTVSPropertyOp30
 70
     1
102
RTVSPropertyOp31
 70
     1
102
RTVSPropertyOp32
 70
     1
102
RTVSPropertyOp33
 70
     1
102
RTVSPropertyOp34
 70
     1
102
RTVSPropertyOp35
 70
     1
102
RTVSPropertyOp36
 70
     1
102
RTVSPropertyOp37
 70
     1
102
RTVSPropertyOp38
 70
     1
102
RTVSPropertyOp39
 70
     1
102
RTVSPropertyOp40
 70
     1
102
RTVSPropertyOp41
 70
     1
102
RTVSPropertyOp42
 70
     1
102
RTVSPropertyOp43
 70
     1
102
RTVSPropertyOp44
 70
     1
102
RTVSPropertyOp45
 70
     1
102
RTVSPropertyOp46
 70
     1
102
RTVSPropertyOp47
 70
     1
102
RTVSPropertyOp48
 70
     1
102
RTVSPropertyOp49
 70
     1
102
RTVSPropertyOp50
 70
     1
102
RTVSPropertyOp51
 70
     0
102
RTVSPropertyOp52
 70
     0
102
RTVSPropertyOp53
 70
     1
102
RTVSPropertyOp54
 70
     1
102
RTVSPropertyOp55
 70
     1
102
RTVSPropertyOp56
 70
     1
102
RTVSPropertyOp57
 70
     1
102
RTVSPost2010Prop28
280
     0
102
RTVSPost2010PropOp28
 70
     1
102
RTVSPost2010Prop29
280
     1
102
RTVSPost2010PropOp29
 70
     1
102
RTVSPost2010Prop30
280
     1
102
RTVSPost2010PropOp30
 70
     1
102
RTVSPost2010Prop31
280
     0
102
RTVSPost2010PropOp31
 70
     1
102
RTVSPost2010Prop32
280
     0
102
RTVSPost2010PropOp32
 70
     1
102
RTVSPost2010Prop33
280
     0
102
RTVSPost2010PropOp33
 70
     1
102
RTVSPost2010Prop34
280
     0
102
RTVSPost2010PropOp34
 70
     1
102
RTVSPost2010Prop35
280
     0
102
RTVSPost2010PropOp35
 70
     1
102
RTVSPost2010Prop36
280
     0
102
RTVSPost2010PropOp36
 70
     1
102
RTVSPost2010Prop37
 90
       50
102
RTVSPost2010PropOp37
 70
     1
102
RTVSPost2010Prop38
140
0.0
102
RTVSPost2010PropOp38
 70
     1
102
RTVSPost2010Prop39
140
1.0
102
RTVSPost2010PropOp39
 70
     1
102
RTVSPost2010Prop40
 90
        0
102
RTVSPost2010PropOp40
 70
     1
102
RTVSPost2010Prop41ColorIndex
 90
       18
102
RTVSPost2010Prop41ColorRGB
 90
        0
102
RTVSPost2010PropOp41
 70
     1
102
RTVSPost2010Prop42
 90
       50
102
RTVSPost2010PropOp42
 70
     1
102
RTVSPost2010Prop43
 90
        3
102
RTVSPost2010PropOp43
 70
     1
102
RTVSPost2010Prop44ColorIndex
 90
        5
102
RTVSPost2010Prop44ColorRGB
 90
      255
102
RTVSPost2010PropOp44
 70
     1
102
RTVSPost2010Prop45
280
     0
102
RTVSPost2010PropOp45
 70
     1
102
RTVSPost2010Prop46
 90
       50
102
RTVSPost2010PropOp46
 70
     1
102
RTVSPost2010Prop47
 90
       50
102
RTVSPost2010PropOp47
 70
     1
102
RTVSPost2010Prop48
 90
       50
102
RTVSPost2010PropOp48
 70
     1
102
RTVSPost2010Prop49
280
     0
102
RTVSPost2010PropOp49
 70
     1
102
RTVSPost2010Prop50
 90
       50
102
RTVSPost2010PropOp50
 70
     1
102
RTVSPost2010Prop51ColorIndex
 90
      256
102
RTVSPost2010Prop51ColorRGB
 90
-16777216
102
RTVSPost2010PropOp51
 70
     0
102
RTVSPost2010Prop52
140
1.0
102
RTVSPost2010PropOp52
 70
     0
102
RTVSPost2010Prop53
 90
        2
102
RTVSPost2010PropOp53
 70
     1
102
RTVSPost2010Prop54
  1
strokes_ogs.tif
102
RTVSPost2010PropOp54
 70
     1
102
RTVSPost2010Prop55
280
     0
102
RTVSPost2010PropOp55
 70
     1
102
RTVSPost2010Prop56
140
1.0
102
RTVSPost2010PropOp56
 70
     1
102
RTVSPost2010Prop57
140
1.0
102
RTVSPost2010PropOp57
 70
     1
  0
XRECORD
  5
2C8
102
{ACAD_REACTORS
330
2C7
102
}
330
2C7
100
AcDbXrecord
280
     1
102
RTVSPropertyOp0
 70
     0
102
RTVSPropertyOp1
 70
     0
102
RTVSPropertyOp2
 70
     0
102
RTVSPropertyOp3
 70
     0
102
RTVSPropertyOp4
 70
     0
102
RTVSPropertyOp5
 70
     0
102
RTVSPropertyOp6
 70
     0
102
RTVSPropertyOp7
 70
     0
102
RTVSPropertyOp8
 70
     0
102
RTVSPropertyOp9
 70
     0
102
RTVSPropertyOp10
 70
     0
102
RTVSPropertyOp11
 70
     0
102
RTVSPropertyOp12
 70
     0
102
RTVSPropertyOp13
 70
     0
102
RTVSPropertyOp14
 70
     2
102
RTVSPropertyOp15
 70
     0
102
RTVSPropertyOp16
 70
     0
102
RTVSPropertyOp17
 70
     0
102
RTVSPropertyOp18
 70
     0
102
RTVSPropertyOp19
 70
     0
102
RTVSPropertyOp20
 70
     0
102
RTVSPropertyOp21
 70
     0
102
RTVSPropertyOp22
 70
     0
102
RTVSPropertyOp23
 70
     0
102
RTVSPropertyOp24
 70
     0
102
RTVSPropertyOp25
 70
     0
102
RTVSPropertyOp26
 70
     0
102
RTVSPropertyOp27
 70
     0
102
RTVSPropertyOp28
 70
     0
102
RTVSPropertyOp29
 70
     0
102
RTVSPropertyOp30
 70
     0
102
RTVSPropertyOp31
 70
     0
102
RTVSPropertyOp32
 70
     0
102
RTVSPropertyOp33
 70
     0
102
RTVSPropertyOp34
 70
     0
102
RTVSPropertyOp35
 70
     0
102
RTVSPropertyOp36
 70
     0
102
RTVSPropertyOp37
 70
     0
102
RTVSPropertyOp38
 70
     0
102
RTVSPropertyOp39
 70
     0
102
RTVSPropertyOp40
 70
     0
102
RTVSPropertyOp41
 70
     0
102
RTVSPropertyOp42
 70
     0
102
RTVSPropertyOp43
 70
     0
102
RTVSPropertyOp44
 70
     0
102
RTVSPropertyOp45
 70
     0
102
RTVSPropertyOp46
 70
     0
102
RTVSPropertyOp47
 70
     0
102
RTVSPropertyOp48
 70
     0
102
RTVSPropertyOp49
 70
     0
102
RTVSPropertyOp50
 70
     0
102
RTVSPropertyOp51
 70
     0
102
RTVSPropertyOp52
 70
     0
102
RTVSPropertyOp53
 70
     0
102
RTVSPropertyOp54
 70
     0
102
RTVSPropertyOp55
 70
     0
102
RTVSPropertyOp56
 70
     0
102
RTVSPropertyOp57
 70
     0
102
RTVSPost2010Prop28
280
     0
102
RTVSPost2010PropOp28
 70
     0
102
RTVSPost2010Prop29
280
     1
102
RTVSPost2010PropOp29
 70
     0
102
RTVSPost2010Prop30
280
     1
102
RTVSPost2010PropOp30
 70
     0
102
RTVSPost2010Prop31
280
     0
102
RTVSPost2010PropOp31
 70
     0
102
RTVSPost2010Prop32
280
     0
102
RTVSPost2010PropOp32
 70
     0
102
RTVSPost2010Prop33
280
     0
102
RTVSPost2010PropOp33
 70
     0
102
RTVSPost2010Prop34
280
     0
102
RTVSPost2010PropOp34
 70
     0
102
RTVSPost2010Prop35
280
     0
102
RTVSPost2010PropOp35
 70
     0
102
RTVSPost2010Prop36
280
     0
102
RTVSPost2010PropOp36
 70
     0
102
RTVSPost2010Prop37
 90
       50
102
RTVSPost2010PropOp37
 70
     0
102
RTVSPost2010Prop38
140
0.0
102
RTVSPost2010PropOp38
 70
     0
102
RTVSPost2010Prop39
140
1.0
102
RTVSPost2010PropOp39
 70
     0
102
RTVSPost2010Prop40
 90
        0
102
RTVSPost2010PropOp40
 70
     0
102
RTVSPost2010Prop41ColorIndex
 90
       18
102
RTVSPost2010Prop41ColorRGB
 90
        0
102
RTVSPost2010PropOp41
 70
     0
102
RTVSPost2010Prop42
 90
       50
102
RTVSPost2010PropOp42
 70
     0
102
RTVSPost2010Prop43
 90
        3
102
RTVSPost2010PropOp43
 70
     0
102
RTVSPost2010Prop44ColorIndex
 90
        5
102
RTVSPost2010Prop44ColorRGB
 90
      255
102
RTVSPost2010PropOp44
 70
     0
102
RTVSPost2010Prop45
280
     0
102
RTVSPost2010PropOp45
 70
     0
102
RTVSPost2010Prop46
 90
       50
102
RTVSPost2010PropOp46
 70
     0
102
RTVSPost2010Prop47
 90
       50
102
RTVSPost2010PropOp47
 70
     0
102
RTVSPost2010Prop48
 90
       50
102
RTVSPost2010PropOp48
 70
     0
102
RTVSPost2010Prop49
280
     0
102
RTVSPost2010PropOp49
 70
     0
102
RTVSPost2010Prop50
 90
       50
102
RTVSPost2010PropOp50
 70
     0
102
RTVSPost2010Prop51ColorIndex
 90
      256
102
RTVSPost2010Prop51ColorRGB
 90
-16777216
102
RTVSPost2010PropOp51
 70
     0
102
RTVSPost2010Prop52
140
1.0
102
RTVSPost2010PropOp52
 70
     0
102
RTVSPost2010Prop53
 90
        2
102
RTVSPost2010PropOp53
 70
     0
102
RTVSPost2010Prop54
  1
strokes_ogs.tif
102
RTVSPost2010PropOp54
 70
     0
102
RTVSPost2010Prop55
280
     0
102
RTVSPost2010PropOp55
 70
     0
102
RTVSPost2010Prop56
140
1.0
102
RTVSPost2010PropOp56
 70
     0
102
RTVSPost2010Prop57
140
1.0
102
RTVSPost2010PropOp57
 70
     0
  0
XRECORD
  5
2B6
102
{ACAD_REACTORS
330
2B5
102
}
330
2B5
100
AcDbXrecord
280
     1
102
RTVSPropertyOp0
 70
     1
102
RTVSPropertyOp1
 70
     1
102
RTVSPropertyOp2
 70
     1
102
RTVSPropertyOp3
 70
     1
102
RTVSPropertyOp4
 70
     1
102
RTVSPropertyOp5
 70
     1
102
RTVSPropertyOp6
 70
     1
102
RTVSPropertyOp7
 70
     1
102
RTVSPropertyOp8
 70
     1
102
RTVSPropertyOp9
 70
     1
102
RTVSPropertyOp10
 70
     1
102
RTVSPropertyOp11
 70
     1
102
RTVSPropertyOp12
 70
     1
102
RTVSPropertyOp13
 70
     1
102
RTVSPropertyOp14
 70
     1
102
RTVSPropertyOp15
 70
     1
102
RTVSPropertyOp16
 70
     1
102
RTVSPropertyOp17
 70
     1
102
RTVSPropertyOp18
 70
     1
102
RTVSPropertyOp19
 70
     1
102
RTVSPropertyOp20
 70
     1
102
RTVSPropertyOp21
 70
     1
102
RTVSPropertyOp22
 70
     1
102
RTVSPropertyOp23
 70
     1
102
RTVSPropertyOp24
 70
     1
102
RTVSPropertyOp25
 70
     1
102
RTVSPropertyOp26
 70
     1
102
RTVSPropertyOp27
 70
     1
102
RTVSPropertyOp28
 70
     1
102
RTVSPropertyOp29
 70
     1
102
RTVSPropertyOp30
 70
     1
102
RTVSPropertyOp31
 70
     1
102
RTVSPropertyOp32
 70
     1
102
RTVSPropertyOp33
 70
     1
102
RTVSPropertyOp34
 70
     1
102
RTVSPropertyOp35
 70
     1
102
RTVSPropertyOp36
 70
     1
102
RTVSPropertyOp37
 70
     1
102
RTVSPropertyOp38
 70
     1
102
RTVSPropertyOp39
 70
     1
102
RTVSPropertyOp40
 70
     1
102
RTVSPropertyOp41
 70
     1
102
RTVSPropertyOp42
 70
     1
102
RTVSPropertyOp43
 70
     1
102
RTVSPropertyOp44
 70
     1
102
RTVSPropertyOp45
 70
     1
102
RTVSPropertyOp46
 70
     1
102
RTVSPropertyOp47
 70
     1
102
RTVSPropertyOp48
 70
     1
102
RTVSPropertyOp49
 70
     1
102
RTVSPropertyOp50
 70
     1
102
RTVSPropertyOp51
 70
     0
102
RTVSPropertyOp52
 70
     0
102
RTVSPropertyOp53
 70
     1
102
RTVSPropertyOp54
 70
     1
102
RTVSPropertyOp55
 70
     1
102
RTVSPropertyOp56
 70
     1
102
RTVSPropertyOp57
 70
     1
102
RTVSPost2010Prop28
280
     0
102
RTVSPost2010PropOp28
 70
     1
102
RTVSPost2010Prop29
280
     1
102
RTVSPost2010PropOp29
 70
     1
102
RTVSPost2010Prop30
280
     1
102
RTVSPost2010PropOp30
 70
     1
102
RTVSPost2010Prop31
280
     0
102
RTVSPost2010PropOp31
 70
     1
102
RTVSPost2010Prop32
280
     0
102
RTVSPost2010PropOp32
 70
     1
102
RTVSPost2010Prop33
280
     0
102
RTVSPost2010PropOp33
 70
     1
102
RTVSPost2010Prop34
280
     0
102
RTVSPost2010PropOp34
 70
     1
102
RTVSPost2010Prop35
280
     0
102
RTVSPost2010PropOp35
 70
     1
102
RTVSPost2010Prop36
280
     0
102
RTVSPost2010PropOp36
 70
     1
102
RTVSPost2010Prop37
 90
       50
102
RTVSPost2010PropOp37
 70
     1
102
RTVSPost2010Prop38
140
0.0
102
RTVSPost2010PropOp38
 70
     1
102
RTVSPost2010Prop39
140
1.0
102
RTVSPost2010PropOp39
 70
     1
102
RTVSPost2010Prop40
 90
        0
102
RTVSPost2010PropOp40
 70
     1
102
RTVSPost2010Prop41ColorIndex
 90
       18
102
RTVSPost2010Prop41ColorRGB
 90
        0
102
RTVSPost2010PropOp41
 70
     1
102
RTVSPost2010Prop42
 90
       50
102
RTVSPost2010PropOp42
 70
     1
102
RTVSPost2010Prop43
 90
        3
102
RTVSPost2010PropOp43
 70
     1
102
RTVSPost2010Prop44ColorIndex
 90
        5
102
RTVSPost2010Prop44ColorRGB
 90
      255
102
RTVSPost2010PropOp44
 70
     1
102
RTVSPost2010Prop45
280
     0
102
RTVSPost2010PropOp45
 70
     1
102
RTVSPost2010Prop46
 90
       50
102
RTVSPost2010PropOp46
 70
     1
102
RTVSPost2010Prop47
 90
       50
102
RTVSPost2010PropOp47
 70
     1
102
RTVSPost2010Prop48
 90
       50
102
RTVSPost2010PropOp48
 70
     1
102
RTVSPost2010Prop49
280
     0
102
RTVSPost2010PropOp49
 70
     1
102
RTVSPost2010Prop50
 90
       50
102
RTVSPost2010PropOp50
 70
     1
102
RTVSPost2010Prop51ColorIndex
 90
      256
102
RTVSPost2010Prop51ColorRGB
 90
-16777216
102
RTVSPost2010PropOp51
 70
     0
102
RTVSPost2010Prop52
140
1.0
102
RTVSPost2010PropOp52
 70
     0
102
RTVSPost2010Prop53
 90
        2
102
RTVSPost2010PropOp53
 70
     1
102
RTVSPost2010Prop54
  1
strokes_ogs.tif
102
RTVSPost2010PropOp54
 70
     1
102
RTVSPost2010Prop55
280
     0
102
RTVSPost2010PropOp55
 70
     1
102
RTVSPost2010Prop56
140
1.0
102
RTVSPost2010PropOp56
 70
     1
102
RTVSPost2010Prop57
140
1.0
102
RTVSPost2010PropOp57
 70
     1
  0
XRECORD
  5
2D4
102
{ACAD_REACTORS
330
2D3
102
}
330
2D3
100
AcDbXrecord
280
     1
102
RTVSPropertyOp0
 70
     1
102
RTVSPropertyOp1
 70
     1
102
RTVSPropertyOp2
 70
     1
102
RTVSPropertyOp3
 70
     1
102
RTVSPropertyOp4
 70
     1
102
RTVSPropertyOp5
 70
     1
102
RTVSPropertyOp6
 70
     1
102
RTVSPropertyOp7
 70
     1
102
RTVSPropertyOp8
 70
     1
102
RTVSPropertyOp9
 70
     1
102
RTVSPropertyOp10
 70
     1
102
RTVSPropertyOp11
 70
     1
102
RTVSPropertyOp12
 70
     1
102
RTVSPropertyOp13
 70
     1
102
RTVSPropertyOp14
 70
     1
102
RTVSPropertyOp15
 70
     1
102
RTVSPropertyOp16
 70
     1
102
RTVSPropertyOp17
 70
     1
102
RTVSPropertyOp18
 70
     1
102
RTVSPropertyOp19
 70
     1
102
RTVSPropertyOp20
 70
     1
102
RTVSPropertyOp21
 70
     1
102
RTVSPropertyOp22
 70
     1
102
RTVSPropertyOp23
 70
     1
102
RTVSPropertyOp24
 70
     1
102
RTVSPropertyOp25
 70
     1
102
RTVSPropertyOp26
 70
     1
102
RTVSPropertyOp27
 70
     1
102
RTVSPropertyOp28
 70
     1
102
RTVSPropertyOp29
 70
     1
102
RTVSPropertyOp30
 70
     1
102
RTVSPropertyOp31
 70
     1
102
RTVSPropertyOp32
 70
     1
102
RTVSPropertyOp33
 70
     1
102
RTVSPropertyOp34
 70
     1
102
RTVSPropertyOp35
 70
     1
102
RTVSPropertyOp36
 70
     1
102
RTVSPropertyOp37
 70
     1
102
RTVSPropertyOp38
 70
     1
102
RTVSPropertyOp39
 70
     1
102
RTVSPropertyOp40
 70
     1
102
RTVSPropertyOp41
 70
     1
102
RTVSPropertyOp42
 70
     1
102
RTVSPropertyOp43
 70
     1
102
RTVSPropertyOp44
 70
     1
102
RTVSPropertyOp45
 70
     1
102
RTVSPropertyOp46
 70
     1
102
RTVSPropertyOp47
 70
     1
102
RTVSPropertyOp48
 70
     1
102
RTVSPropertyOp49
 70
     1
102
RTVSPropertyOp50
 70
     1
102
RTVSPropertyOp51
 70
     0
102
RTVSPropertyOp52
 70
     0
102
RTVSPropertyOp53
 70
     1
102
RTVSPropertyOp54
 70
     1
102
RTVSPropertyOp55
 70
     1
102
RTVSPropertyOp56
 70
     1
102
RTVSPropertyOp57
 70
     1
102
RTVSPost2010Prop28
280
     0
102
RTVSPost2010PropOp28
 70
     1
102
RTVSPost2010Prop29
280
     1
102
RTVSPost2010PropOp29
 70
     1
102
RTVSPost2010Prop30
280
     1
102
RTVSPost2010PropOp30
 70
     1
102
RTVSPost2010Prop31
280
     0
102
RTVSPost2010PropOp31
 70
     1
102
RTVSPost2010Prop32
280
     0
102
RTVSPost2010PropOp32
 70
     1
102
RTVSPost2010Prop33
280
     0
102
RTVSPost2010PropOp33
 70
     1
102
RTVSPost2010Prop34
280
     0
102
RTVSPost2010PropOp34
 70
     1
102
RTVSPost2010Prop35
280
     0
102
RTVSPost2010PropOp35
 70
     1
102
RTVSPost2010Prop36
280
     0
102
RTVSPost2010PropOp36
 70
     1
102
RTVSPost2010Prop37
 90
       50
102
RTVSPost2010PropOp37
 70
     1
102
RTVSPost2010Prop38
140
0.0
102
RTVSPost2010PropOp38
 70
     1
102
RTVSPost2010Prop39
140
1.0
102
RTVSPost2010PropOp39
 70
     1
102
RTVSPost2010Prop40
 90
        0
102
RTVSPost2010PropOp40
 70
     1
102
RTVSPost2010Prop41ColorIndex
 90
       18
102
RTVSPost2010Prop41ColorRGB
 90
        0
102
RTVSPost2010PropOp41
 70
     1
102
RTVSPost2010Prop42
 90
       50
102
RTVSPost2010PropOp42
 70
     1
102
RTVSPost2010Prop43
 90
        3
102
RTVSPost2010PropOp43
 70
     1
102
RTVSPost2010Prop44ColorIndex
 90
        5
102
RTVSPost2010Prop44ColorRGB
 90
      255
102
RTVSPost2010PropOp44
 70
     1
102
RTVSPost2010Prop45
280
     0
102
RTVSPost2010PropOp45
 70
     1
102
RTVSPost2010Prop46
 90
       50
102
RTVSPost2010PropOp46
 70
     1
102
RTVSPost2010Prop47
 90
       50
102
RTVSPost2010PropOp47
 70
     1
102
RTVSPost2010Prop48
 90
       50
102
RTVSPost2010PropOp48
 70
     1
102
RTVSPost2010Prop49
280
     0
102
RTVSPost2010PropOp49
 70
     1
102
RTVSPost2010Prop50
 90
       50
102
RTVSPost2010PropOp50
 70
     1
102
RTVSPost2010Prop51ColorIndex
 90
      256
102
RTVSPost2010Prop51ColorRGB
 90
-16777216
102
RTVSPost2010PropOp51
 70
     0
102
RTVSPost2010Prop52
140
1.0
102
RTVSPost2010PropOp52
 70
     0
102
RTVSPost2010Prop53
 90
        2
102
RTVSPost2010PropOp53
 70
     1
102
RTVSPost2010Prop54
  1
strokes_ogs.tif
102
RTVSPost2010PropOp54
 70
     1
102
RTVSPost2010Prop55
280
     0
102
RTVSPost2010PropOp55
 70
     1
102
RTVSPost2010Prop56
140
1.0
102
RTVSPost2010PropOp56
 70
     1
102
RTVSPost2010Prop57
140
1.0
102
RTVSPost2010PropOp57
 70
     1
  0
XRECORD
  5
2D2
102
{ACAD_REACTORS
330
2D1
102
}
330
2D1
100
AcDbXrecord
280
     1
102
RTVSPropertyOp0
 70
     1
102
RTVSPropertyOp1
 70
     1
102
RTVSPropertyOp2
 70
     1
102
RTVSPropertyOp3
 70
     1
102
RTVSPropertyOp4
 70
     1
102
RTVSPropertyOp5
 70
     1
102
RTVSPropertyOp6
 70
     1
102
RTVSPropertyOp7
 70
     1
102
RTVSPropertyOp8
 70
     1
102
RTVSPropertyOp9
 70
     1
102
RTVSPropertyOp10
 70
     1
102
RTVSPropertyOp11
 70
     1
102
RTVSPropertyOp12
 70
     1
102
RTVSPropertyOp13
 70
     1
102
RTVSPropertyOp14
 70
     1
102
RTVSPropertyOp15
 70
     1
102
RTVSPropertyOp16
 70
     1
102
RTVSPropertyOp17
 70
     1
102
RTVSPropertyOp18
 70
     1
102
RTVSPropertyOp19
 70
     1
102
RTVSPropertyOp20
 70
     1
102
RTVSPropertyOp21
 70
     1
102
RTVSPropertyOp22
 70
     1
102
RTVSPropertyOp23
 70
     1
102
RTVSPropertyOp24
 70
     1
102
RTVSPropertyOp25
 70
     1
102
RTVSPropertyOp26
 70
     1
102
RTVSPropertyOp27
 70
     1
102
RTVSPropertyOp28
 70
     1
102
RTVSPropertyOp29
 70
     1
102
RTVSPropertyOp30
 70
     1
102
RTVSPropertyOp31
 70
     1
102
RTVSPropertyOp32
 70
     1
102
RTVSPropertyOp33
 70
     1
102
RTVSPropertyOp34
 70
     1
102
RTVSPropertyOp35
 70
     1
102
RTVSPropertyOp36
 70
     1
102
RTVSPropertyOp37
 70
     1
102
RTVSPropertyOp38
 70
     1
102
RTVSPropertyOp39
 70
     1
102
RTVSPropertyOp40
 70
     1
102
RTVSPropertyOp41
 70
     1
102
RTVSPropertyOp42
 70
     1
102
RTVSPropertyOp43
 70
     1
102
RTVSPropertyOp44
 70
     1
102
RTVSPropertyOp45
 70
     1
102
RTVSPropertyOp46
 70
     1
102
RTVSPropertyOp47
 70
     1
102
RTVSPropertyOp48
 70
     1
102
RTVSPropertyOp49
 70
     1
102
RTVSPropertyOp50
 70
     1
102
RTVSPropertyOp51
 70
     0
102
RTVSPropertyOp52
 70
     0
102
RTVSPropertyOp53
 70
     1
102
RTVSPropertyOp54
 70
     1
102
RTVSPropertyOp55
 70
     1
102
RTVSPropertyOp56
 70
     1
102
RTVSPropertyOp57
 70
     1
102
RTVSPost2010Prop28
280
     0
102
RTVSPost2010PropOp28
 70
     1
102
RTVSPost2010Prop29
280
     1
102
RTVSPost2010PropOp29
 70
     1
102
RTVSPost2010Prop30
280
     1
102
RTVSPost2010PropOp30
 70
     1
102
RTVSPost2010Prop31
280
     0
102
RTVSPost2010PropOp31
 70
     1
102
RTVSPost2010Prop32
280
     0
102
RTVSPost2010PropOp32
 70
     1
102
RTVSPost2010Prop33
280
     0
102
RTVSPost2010PropOp33
 70
     1
102
RTVSPost2010Prop34
280
     0
102
RTVSPost2010PropOp34
 70
     1
102
RTVSPost2010Prop35
280
     0
102
RTVSPost2010PropOp35
 70
     1
102
RTVSPost2010Prop36
280
     0
102
RTVSPost2010PropOp36
 70
     1
102
RTVSPost2010Prop37
 90
       50
102
RTVSPost2010PropOp37
 70
     1
102
RTVSPost2010Prop38
140
0.0
102
RTVSPost2010PropOp38
 70
     1
102
RTVSPost2010Prop39
140
1.0
102
RTVSPost2010PropOp39
 70
     1
102
RTVSPost2010Prop40
 90
        0
102
RTVSPost2010PropOp40
 70
     1
102
RTVSPost2010Prop41ColorIndex
 90
       18
102
RTVSPost2010Prop41ColorRGB
 90
        0
102
RTVSPost2010PropOp41
 70
     1
102
RTVSPost2010Prop42
 90
       50
102
RTVSPost2010PropOp42
 70
     1
102
RTVSPost2010Prop43
 90
        3
102
RTVSPost2010PropOp43
 70
     1
102
RTVSPost2010Prop44ColorIndex
 90
        5
102
RTVSPost2010Prop44ColorRGB
 90
      255
102
RTVSPost2010PropOp44
 70
     1
102
RTVSPost2010Prop45
280
     0
102
RTVSPost2010PropOp45
 70
     1
102
RTVSPost2010Prop46
 90
       50
102
RTVSPost2010PropOp46
 70
     1
102
RTVSPost2010Prop47
 90
       50
102
RTVSPost2010PropOp47
 70
     1
102
RTVSPost2010Prop48
 90
       50
102
RTVSPost2010PropOp48
 70
     1
102
RTVSPost2010Prop49
280
     0
102
RTVSPost2010PropOp49
 70
     1
102
RTVSPost2010Prop50
 90
       50
102
RTVSPost2010PropOp50
 70
     1
102
RTVSPost2010Prop51ColorIndex
 90
      256
102
RTVSPost2010Prop51ColorRGB
 90
-16777216
102
RTVSPost2010PropOp51
 70
     0
102
RTVSPost2010Prop52
140
1.0
102
RTVSPost2010PropOp52
 70
     0
102
RTVSPost2010Prop53
 90
        2
102
RTVSPost2010PropOp53
 70
     1
102
RTVSPost2010Prop54
  1
strokes_ogs.tif
102
RTVSPost2010PropOp54
 70
     1
102
RTVSPost2010Prop55
280
     0
102
RTVSPost2010PropOp55
 70
     1
102
RTVSPost2010Prop56
140
1.0
102
RTVSPost2010PropOp56
 70
     1
102
RTVSPost2010Prop57
140
1.0
102
RTVSPost2010PropOp57
 70
     1
  0
XRECORD
  5
2CC
102
{ACAD_REACTORS
330
2CB
102
}
330
2CB
100
AcDbXrecord
280
     1
102
RTVSPropertyOp0
 70
     1
102
RTVSPropertyOp1
 70
     1
102
RTVSPropertyOp2
 70
     1
102
RTVSPropertyOp3
 70
     1
102
RTVSPropertyOp4
 70
     1
102
RTVSPropertyOp5
 70
     1
102
RTVSPropertyOp6
 70
     1
102
RTVSPropertyOp7
 70
     1
102
RTVSPropertyOp8
 70
     1
102
RTVSPropertyOp9
 70
     1
102
RTVSPropertyOp10
 70
     1
102
RTVSPropertyOp11
 70
     1
102
RTVSPropertyOp12
 70
     1
102
RTVSPropertyOp13
 70
     1
102
RTVSPropertyOp14
 70
     1
102
RTVSPropertyOp15
 70
     1
102
RTVSPropertyOp16
 70
     1
102
RTVSPropertyOp17
 70
     1
102
RTVSPropertyOp18
 70
     1
102
RTVSPropertyOp19
 70
     1
102
RTVSPropertyOp20
 70
     1
102
RTVSPropertyOp21
 70
     1
102
RTVSPropertyOp22
 70
     1
102
RTVSPropertyOp23
 70
     1
102
RTVSPropertyOp24
 70
     1
102
RTVSPropertyOp25
 70
     1
102
RTVSPropertyOp26
 70
     1
102
RTVSPropertyOp27
 70
     1
102
RTVSPropertyOp28
 70
     1
102
RTVSPropertyOp29
 70
     1
102
RTVSPropertyOp30
 70
     1
102
RTVSPropertyOp31
 70
     1
102
RTVSPropertyOp32
 70
     1
102
RTVSPropertyOp33
 70
     1
102
RTVSPropertyOp34
 70
     1
102
RTVSPropertyOp35
 70
     1
102
RTVSPropertyOp36
 70
     1
102
RTVSPropertyOp37
 70
     1
102
RTVSPropertyOp38
 70
     1
102
RTVSPropertyOp39
 70
     1
102
RTVSPropertyOp40
 70
     1
102
RTVSPropertyOp41
 70
     1
102
RTVSPropertyOp42
 70
     1
102
RTVSPropertyOp43
 70
     1
102
RTVSPropertyOp44
 70
     1
102
RTVSPropertyOp45
 70
     1
102
RTVSPropertyOp46
 70
     1
102
RTVSPropertyOp47
 70
     1
102
RTVSPropertyOp48
 70
     1
102
RTVSPropertyOp49
 70
     1
102
RTVSPropertyOp50
 70
     1
102
RTVSPropertyOp51
 70
     0
102
RTVSPropertyOp52
 70
     0
102
RTVSPropertyOp53
 70
     1
102
RTVSPropertyOp54
 70
     1
102
RTVSPropertyOp55
 70
     1
102
RTVSPropertyOp56
 70
     1
102
RTVSPropertyOp57
 70
     1
102
RTVSPost2010Prop28
280
     0
102
RTVSPost2010PropOp28
 70
     1
102
RTVSPost2010Prop29
280
     1
102
RTVSPost2010PropOp29
 70
     1
102
RTVSPost2010Prop30
280
     1
102
RTVSPost2010PropOp30
 70
     1
102
RTVSPost2010Prop31
280
     0
102
RTVSPost2010PropOp31
 70
     1
102
RTVSPost2010Prop32
280
     0
102
RTVSPost2010PropOp32
 70
     1
102
RTVSPost2010Prop33
280
     0
102
RTVSPost2010PropOp33
 70
     1
102
RTVSPost2010Prop34
280
     0
102
RTVSPost2010PropOp34
 70
     1
102
RTVSPost2010Prop35
280
     0
102
RTVSPost2010PropOp35
 70
     1
102
RTVSPost2010Prop36
280
     0
102
RTVSPost2010PropOp36
 70
     1
102
RTVSPost2010Prop37
 90
       50
102
RTVSPost2010PropOp37
 70
     1
102
RTVSPost2010Prop38
140
0.0
102
RTVSPost2010PropOp38
 70
     1
102
RTVSPost2010Prop39
140
1.0
102
RTVSPost2010PropOp39
 70
     1
102
RTVSPost2010Prop40
 90
        0
102
RTVSPost2010PropOp40
 70
     1
102
RTVSPost2010Prop41ColorIndex
 90
       18
102
RTVSPost2010Prop41ColorRGB
 90
        0
102
RTVSPost2010PropOp41
 70
     1
102
RTVSPost2010Prop42
 90
       50
102
RTVSPost2010PropOp42
 70
     1
102
RTVSPost2010Prop43
 90
        3
102
RTVSPost2010PropOp43
 70
     1
102
RTVSPost2010Prop44ColorIndex
 90
        5
102
RTVSPost2010Prop44ColorRGB
 90
      255
102
RTVSPost2010PropOp44
 70
     1
102
RTVSPost2010Prop45
280
     0
102
RTVSPost2010PropOp45
 70
     1
102
RTVSPost2010Prop46
 90
       50
102
RTVSPost2010PropOp46
 70
     1
102
RTVSPost2010Prop47
 90
       50
102
RTVSPost2010PropOp47
 70
     1
102
RTVSPost2010Prop48
 90
       50
102
RTVSPost2010PropOp48
 70
     1
102
RTVSPost2010Prop49
280
     0
102
RTVSPost2010PropOp49
 70
     1
102
RTVSPost2010Prop50
 90
       50
102
RTVSPost2010PropOp50
 70
     1
102
RTVSPost2010Prop51ColorIndex
 90
      256
102
RTVSPost2010Prop51ColorRGB
 90
-16777216
102
RTVSPost2010PropOp51
 70
     0
102
RTVSPost2010Prop52
140
1.0
102
RTVSPost2010PropOp52
 70
     0
102
RTVSPost2010Prop53
 90
        2
102
RTVSPost2010PropOp53
 70
     1
102
RTVSPost2010Prop54
  1
strokes_ogs.tif
102
RTVSPost2010PropOp54
 70
     1
102
RTVSPost2010Prop55
280
     0
102
RTVSPost2010PropOp55
 70
     1
102
RTVSPost2010Prop56
140
1.0
102
RTVSPost2010PropOp56
 70
     1
102
RTVSPost2010Prop57
140
1.0
102
RTVSPost2010PropOp57
 70
     1
  0
XRECORD
  5
2CE
102
{ACAD_REACTORS
330
2CD
102
}
330
2CD
100
AcDbXrecord
280
     1
102
RTVSPropertyOp0
 70
     1
102
RTVSPropertyOp1
 70
     1
102
RTVSPropertyOp2
 70
     1
102
RTVSPropertyOp3
 70
     1
102
RTVSPropertyOp4
 70
     1
102
RTVSPropertyOp5
 70
     1
102
RTVSPropertyOp6
 70
     1
102
RTVSPropertyOp7
 70
     1
102
RTVSPropertyOp8
 70
     1
102
RTVSPropertyOp9
 70
     1
102
RTVSPropertyOp10
 70
     1
102
RTVSPropertyOp11
 70
     1
102
RTVSPropertyOp12
 70
     1
102
RTVSPropertyOp13
 70
     1
102
RTVSPropertyOp14
 70
     1
102
RTVSPropertyOp15
 70
     1
102
RTVSPropertyOp16
 70
     1
102
RTVSPropertyOp17
 70
     1
102
RTVSPropertyOp18
 70
     1
102
RTVSPropertyOp19
 70
     1
102
RTVSPropertyOp20
 70
     1
102
RTVSPropertyOp21
 70
     1
102
RTVSPropertyOp22
 70
     1
102
RTVSPropertyOp23
 70
     1
102
RTVSPropertyOp24
 70
     1
102
RTVSPropertyOp25
 70
     1
102
RTVSPropertyOp26
 70
     1
102
RTVSPropertyOp27
 70
     1
102
RTVSPropertyOp28
 70
     1
102
RTVSPropertyOp29
 70
     1
102
RTVSPropertyOp30
 70
     1
102
RTVSPropertyOp31
 70
     1
102
RTVSPropertyOp32
 70
     1
102
RTVSPropertyOp33
 70
     1
102
RTVSPropertyOp34
 70
     1
102
RTVSPropertyOp35
 70
     1
102
RTVSPropertyOp36
 70
     1
102
RTVSPropertyOp37
 70
     1
102
RTVSPropertyOp38
 70
     1
102
RTVSPropertyOp39
 70
     1
102
RTVSPropertyOp40
 70
     1
102
RTVSPropertyOp41
 70
     1
102
RTVSPropertyOp42
 70
     1
102
RTVSPropertyOp43
 70
     1
102
RTVSPropertyOp44
 70
     1
102
RTVSPropertyOp45
 70
     1
102
RTVSPropertyOp46
 70
     1
102
RTVSPropertyOp47
 70
     1
102
RTVSPropertyOp48
 70
     1
102
RTVSPropertyOp49
 70
     1
102
RTVSPropertyOp50
 70
     1
102
RTVSPropertyOp51
 70
     0
102
RTVSPropertyOp52
 70
     0
102
RTVSPropertyOp53
 70
     1
102
RTVSPropertyOp54
 70
     1
102
RTVSPropertyOp55
 70
     1
102
RTVSPropertyOp56
 70
     1
102
RTVSPropertyOp57
 70
     1
102
RTVSPost2010Prop28
280
     0
102
RTVSPost2010PropOp28
 70
     1
102
RTVSPost2010Prop29
280
     1
102
RTVSPost2010PropOp29
 70
     1
102
RTVSPost2010Prop30
280
     1
102
RTVSPost2010PropOp30
 70
     1
102
RTVSPost2010Prop31
280
     0
102
RTVSPost2010PropOp31
 70
     1
102
RTVSPost2010Prop32
280
     0
102
RTVSPost2010PropOp32
 70
     1
102
RTVSPost2010Prop33
280
     0
102
RTVSPost2010PropOp33
 70
     1
102
RTVSPost2010Prop34
280
     0
102
RTVSPost2010PropOp34
 70
     1
102
RTVSPost2010Prop35
280
     0
102
RTVSPost2010PropOp35
 70
     1
102
RTVSPost2010Prop36
280
     0
102
RTVSPost2010PropOp36
 70
     1
102
RTVSPost2010Prop37
 90
       50
102
RTVSPost2010PropOp37
 70
     1
102
RTVSPost2010Prop38
140
0.0
102
RTVSPost2010PropOp38
 70
     1
102
RTVSPost2010Prop39
140
1.0
102
RTVSPost2010PropOp39
 70
     1
102
RTVSPost2010Prop40
 90
        0
102
RTVSPost2010PropOp40
 70
     1
102
RTVSPost2010Prop41ColorIndex
 90
       18
102
RTVSPost2010Prop41ColorRGB
 90
        0
102
RTVSPost2010PropOp41
 70
     1
102
RTVSPost2010Prop42
 90
       50
102
RTVSPost2010PropOp42
 70
     1
102
RTVSPost2010Prop43
 90
        3
102
RTVSPost2010PropOp43
 70
     1
102
RTVSPost2010Prop44ColorIndex
 90
        5
102
RTVSPost2010Prop44ColorRGB
 90
      255
102
RTVSPost2010PropOp44
 70
     1
102
RTVSPost2010Prop45
280
     0
102
RTVSPost2010PropOp45
 70
     1
102
RTVSPost2010Prop46
 90
       50
102
RTVSPost2010PropOp46
 70
     1
102
RTVSPost2010Prop47
 90
       50
102
RTVSPost2010PropOp47
 70
     1
102
RTVSPost2010Prop48
 90
       50
102
RTVSPost2010PropOp48
 70
     1
102
RTVSPost2010Prop49
280
     0
102
RTVSPost2010PropOp49
 70
     1
102
RTVSPost2010Prop50
 90
       50
102
RTVSPost2010PropOp50
 70
     1
102
RTVSPost2010Prop51ColorIndex
 90
      256
102
RTVSPost2010Prop51ColorRGB
 90
-16777216
102
RTVSPost2010PropOp51
 70
     0
102
RTVSPost2010Prop52
140
1.0
102
RTVSPost2010PropOp52
 70
     0
102
RTVSPost2010Prop53
 90
        2
102
RTVSPost2010PropOp53
 70
     1
102
RTVSPost2010Prop54
  1
strokes_ogs.tif
102
RTVSPost2010PropOp54
 70
     1
102
RTVSPost2010Prop55
280
     0
102
RTVSPost2010PropOp55
 70
     1
102
RTVSPost2010Prop56
140
1.0
102
RTVSPost2010PropOp56
 70
     1
102
RTVSPost2010Prop57
140
1.0
102
RTVSPost2010PropOp57
 70
     1
  0
XRECORD
  5
2BE
102
{ACAD_REACTORS
330
2BD
102
}
330
2BD
100
AcDbXrecord
280
     1
102
RTVSPropertyOp0
 70
     1
102
RTVSPropertyOp1
 70
     1
102
RTVSPropertyOp2
 70
     1
102
RTVSPropertyOp3
 70
     1
102
RTVSPropertyOp4
 70
     1
102
RTVSPropertyOp5
 70
     1
102
RTVSPropertyOp6
 70
     1
102
RTVSPropertyOp7
 70
     1
102
RTVSPropertyOp8
 70
     1
102
RTVSPropertyOp9
 70
     1
102
RTVSPropertyOp10
 70
     1
102
RTVSPropertyOp11
 70
     1
102
RTVSPropertyOp12
 70
     1
102
RTVSPropertyOp13
 70
     1
102
RTVSPropertyOp14
 70
     1
102
RTVSPropertyOp15
 70
     1
102
RTVSPropertyOp16
 70
     1
102
RTVSPropertyOp17
 70
     1
102
RTVSPropertyOp18
 70
     1
102
RTVSPropertyOp19
 70
     1
102
RTVSPropertyOp20
 70
     1
102
RTVSPropertyOp21
 70
     1
102
RTVSPropertyOp22
 70
     1
102
RTVSPropertyOp23
 70
     1
102
RTVSPropertyOp24
 70
     1
102
RTVSPropertyOp25
 70
     1
102
RTVSPropertyOp26
 70
     1
102
RTVSPropertyOp27
 70
     1
102
RTVSPropertyOp28
 70
     1
102
RTVSPropertyOp29
 70
     1
102
RTVSPropertyOp30
 70
     1
102
RTVSPropertyOp31
 70
     1
102
RTVSPropertyOp32
 70
     1
102
RTVSPropertyOp33
 70
     1
102
RTVSPropertyOp34
 70
     1
102
RTVSPropertyOp35
 70
     1
102
RTVSPropertyOp36
 70
     1
102
RTVSPropertyOp37
 70
     1
102
RTVSPropertyOp38
 70
     1
102
RTVSPropertyOp39
 70
     1
102
RTVSPropertyOp40
 70
     1
102
RTVSPropertyOp41
 70
     1
102
RTVSPropertyOp42
 70
     1
102
RTVSPropertyOp43
 70
     1
102
RTVSPropertyOp44
 70
     1
102
RTVSPropertyOp45
 70
     1
102
RTVSPropertyOp46
 70
     1
102
RTVSPropertyOp47
 70
     1
102
RTVSPropertyOp48
 70
     1
102
RTVSPropertyOp49
 70
     1
102
RTVSPropertyOp50
 70
     1
102
RTVSPropertyOp51
 70
     0
102
RTVSPropertyOp52
 70
     0
102
RTVSPropertyOp53
 70
     1
102
RTVSPropertyOp54
 70
     1
102
RTVSPropertyOp55
 70
     1
102
RTVSPropertyOp56
 70
     1
102
RTVSPropertyOp57
 70
     1
102
RTVSPost2010Prop28
280
     0
102
RTVSPost2010PropOp28
 70
     1
102
RTVSPost2010Prop29
280
     1
102
RTVSPost2010PropOp29
 70
     1
102
RTVSPost2010Prop30
280
     1
102
RTVSPost2010PropOp30
 70
     1
102
RTVSPost2010Prop31
280
     0
102
RTVSPost2010PropOp31
 70
     1
102
RTVSPost2010Prop32
280
     0
102
RTVSPost2010PropOp32
 70
     1
102
RTVSPost2010Prop33
280
     0
102
RTVSPost2010PropOp33
 70
     1
102
RTVSPost2010Prop34
280
     0
102
RTVSPost2010PropOp34
 70
     1
102
RTVSPost2010Prop35
280
     0
102
RTVSPost2010PropOp35
 70
     1
102
RTVSPost2010Prop36
280
     0
102
RTVSPost2010PropOp36
 70
     1
102
RTVSPost2010Prop37
 90
       50
102
RTVSPost2010PropOp37
 70
     1
102
RTVSPost2010Prop38
140
0.0
102
RTVSPost2010PropOp38
 70
     1
102
RTVSPost2010Prop39
140
1.0
102
RTVSPost2010PropOp39
 70
     1
102
RTVSPost2010Prop40
 90
        0
102
RTVSPost2010PropOp40
 70
     1
102
RTVSPost2010Prop41ColorIndex
 90
       18
102
RTVSPost2010Prop41ColorRGB
 90
        0
102
RTVSPost2010PropOp41
 70
     1
102
RTVSPost2010Prop42
 90
       50
102
RTVSPost2010PropOp42
 70
     1
102
RTVSPost2010Prop43
 90
        3
102
RTVSPost2010PropOp43
 70
     1
102
RTVSPost2010Prop44ColorIndex
 90
        5
102
RTVSPost2010Prop44ColorRGB
 90
      255
102
RTVSPost2010PropOp44
 70
     1
102
RTVSPost2010Prop45
280
     0
102
RTVSPost2010PropOp45
 70
     1
102
RTVSPost2010Prop46
 90
       50
102
RTVSPost2010PropOp46
 70
     1
102
RTVSPost2010Prop47
 90
       50
102
RTVSPost2010PropOp47
 70
     1
102
RTVSPost2010Prop48
 90
       50
102
RTVSPost2010PropOp48
 70
     1
102
RTVSPost2010Prop49
280
     0
102
RTVSPost2010PropOp49
 70
     1
102
RTVSPost2010Prop50
 90
       50
102
RTVSPost2010PropOp50
 70
     1
102
RTVSPost2010Prop51ColorIndex
 90
      256
102
RTVSPost2010Prop51ColorRGB
 90
-16777216
102
RTVSPost2010PropOp51
 70
     0
102
RTVSPost2010Prop52
140
1.0
102
RTVSPost2010PropOp52
 70
     0
102
RTVSPost2010Prop53
 90
        2
102
RTVSPost2010PropOp53
 70
     1
102
RTVSPost2010Prop54
  1
strokes_ogs.tif
102
RTVSPost2010PropOp54
 70
     1
102
RTVSPost2010Prop55
280
     0
102
RTVSPost2010PropOp55
 70
     1
102
RTVSPost2010Prop56
140
1.0
102
RTVSPost2010PropOp56
 70
     1
102
RTVSPost2010Prop57
140
1.0
102
RTVSPost2010PropOp57
 70
     1
  0
XRECORD
  5
2B0
102
{ACAD_REACTORS
330
2AF
102
}
330
2AF
100
AcDbXrecord
280
     1
102
RTVSPropertyOp0
 70
     1
102
RTVSPropertyOp1
 70
     1
102
RTVSPropertyOp2
 70
     1
102
RTVSPropertyOp3
 70
     1
102
RTVSPropertyOp4
 70
     1
102
RTVSPropertyOp5
 70
     1
102
RTVSPropertyOp6
 70
     1
102
RTVSPropertyOp7
 70
     1
102
RTVSPropertyOp8
 70
     1
102
RTVSPropertyOp9
 70
     1
102
RTVSPropertyOp10
 70
     1
102
RTVSPropertyOp11
 70
     1
102
RTVSPropertyOp12
 70
     1
102
RTVSPropertyOp13
 70
     1
102
RTVSPropertyOp14
 70
     1
102
RTVSPropertyOp15
 70
     1
102
RTVSPropertyOp16
 70
     1
102
RTVSPropertyOp17
 70
     1
102
RTVSPropertyOp18
 70
     1
102
RTVSPropertyOp19
 70
     1
102
RTVSPropertyOp20
 70
     1
102
RTVSPropertyOp21
 70
     1
102
RTVSPropertyOp22
 70
     1
102
RTVSPropertyOp23
 70
     1
102
RTVSPropertyOp24
 70
     1
102
RTVSPropertyOp25
 70
     1
102
RTVSPropertyOp26
 70
     1
102
RTVSPropertyOp27
 70
     1
102
RTVSPropertyOp28
 70
     1
102
RTVSPropertyOp29
 70
     1
102
RTVSPropertyOp30
 70
     1
102
RTVSPropertyOp31
 70
     1
102
RTVSPropertyOp32
 70
     1
102
RTVSPropertyOp33
 70
     1
102
RTVSPropertyOp34
 70
     1
102
RTVSPropertyOp35
 70
     1
102
RTVSPropertyOp36
 70
     1
102
RTVSPropertyOp37
 70
     1
102
RTVSPropertyOp38
 70
     1
102
RTVSPropertyOp39
 70
     1
102
RTVSPropertyOp40
 70
     1
102
RTVSPropertyOp41
 70
     1
102
RTVSPropertyOp42
 70
     1
102
RTVSPropertyOp43
 70
     1
102
RTVSPropertyOp44
 70
     1
102
RTVSPropertyOp45
 70
     1
102
RTVSPropertyOp46
 70
     1
102
RTVSPropertyOp47
 70
     1
102
RTVSPropertyOp48
 70
     1
102
RTVSPropertyOp49
 70
     1
102
RTVSPropertyOp50
 70
     1
102
RTVSPropertyOp51
 70
     0
102
RTVSPropertyOp52
 70
     0
102
RTVSPropertyOp53
 70
     1
102
RTVSPropertyOp54
 70
     1
102
RTVSPropertyOp55
 70
     1
102
RTVSPropertyOp56
 70
     1
102
RTVSPropertyOp57
 70
     1
102
RTVSPost2010Prop28
280
     0
102
RTVSPost2010PropOp28
 70
     1
102
RTVSPost2010Prop29
280
     1
102
RTVSPost2010PropOp29
 70
     1
102
RTVSPost2010Prop30
280
     1
102
RTVSPost2010PropOp30
 70
     1
102
RTVSPost2010Prop31
280
     0
102
RTVSPost2010PropOp31
 70
     1
102
RTVSPost2010Prop32
280
     0
102
RTVSPost2010PropOp32
 70
     1
102
RTVSPost2010Prop33
280
     0
102
RTVSPost2010PropOp33
 70
     1
102
RTVSPost2010Prop34
280
     0
102
RTVSPost2010PropOp34
 70
     1
102
RTVSPost2010Prop35
280
     0
102
RTVSPost2010PropOp35
 70
     1
102
RTVSPost2010Prop36
280
     0
102
RTVSPost2010PropOp36
 70
     1
102
RTVSPost2010Prop37
 90
       50
102
RTVSPost2010PropOp37
 70
     1
102
RTVSPost2010Prop38
140
0.0
102
RTVSPost2010PropOp38
 70
     1
102
RTVSPost2010Prop39
140
1.0
102
RTVSPost2010PropOp39
 70
     1
102
RTVSPost2010Prop40
 90
        0
102
RTVSPost2010PropOp40
 70
     1
102
RTVSPost2010Prop41ColorIndex
 90
       18
102
RTVSPost2010Prop41ColorRGB
 90
        0
102
RTVSPost2010PropOp41
 70
     1
102
RTVSPost2010Prop42
 90
       50
102
RTVSPost2010PropOp42
 70
     1
102
RTVSPost2010Prop43
 90
        3
102
RTVSPost2010PropOp43
 70
     1
102
RTVSPost2010Prop44ColorIndex
 90
        5
102
RTVSPost2010Prop44ColorRGB
 90
      255
102
RTVSPost2010PropOp44
 70
     1
102
RTVSPost2010Prop45
280
     0
102
RTVSPost2010PropOp45
 70
     1
102
RTVSPost2010Prop46
 90
       50
102
RTVSPost2010PropOp46
 70
     1
102
RTVSPost2010Prop47
 90
       50
102
RTVSPost2010PropOp47
 70
     1
102
RTVSPost2010Prop48
 90
       50
102
RTVSPost2010PropOp48
 70
     1
102
RTVSPost2010Prop49
280
     0
102
RTVSPost2010PropOp49
 70
     1
102
RTVSPost2010Prop50
 90
       50
102
RTVSPost2010PropOp50
 70
     1
102
RTVSPost2010Prop51ColorIndex
 90
      256
102
RTVSPost2010Prop51ColorRGB
 90
-16777216
102
RTVSPost2010PropOp51
 70
     0
102
RTVSPost2010Prop52
140
1.0
102
RTVSPost2010PropOp52
 70
     0
102
RTVSPost2010Prop53
 90
        2
102
RTVSPost2010PropOp53
 70
     1
102
RTVSPost2010Prop54
  1
strokes_ogs.tif
102
RTVSPost2010PropOp54
 70
     1
102
RTVSPost2010Prop55
280
     0
102
RTVSPost2010PropOp55
 70
     1
102
RTVSPost2010Prop56
140
1.0
102
RTVSPost2010PropOp56
 70
     1
102
RTVSPost2010Prop57
140
1.0
102
RTVSPost2010PropOp57
 70
     1
  0
XRECORD
  5
2D0
102
{ACAD_REACTORS
330
2CF
102
}
330
2CF
100
AcDbXrecord
280
     1
102
RTVSPropertyOp0
 70
     1
102
RTVSPropertyOp1
 70
     1
102
RTVSPropertyOp2
 70
     1
102
RTVSPropertyOp3
 70
     1
102
RTVSPropertyOp4
 70
     1
102
RTVSPropertyOp5
 70
     1
102
RTVSPropertyOp6
 70
     1
102
RTVSPropertyOp7
 70
     1
102
RTVSPropertyOp8
 70
     1
102
RTVSPropertyOp9
 70
     1
102
RTVSPropertyOp10
 70
     1
102
RTVSPropertyOp11
 70
     1
102
RTVSPropertyOp12
 70
     1
102
RTVSPropertyOp13
 70
     1
102
RTVSPropertyOp14
 70
     1
102
RTVSPropertyOp15
 70
     1
102
RTVSPropertyOp16
 70
     1
102
RTVSPropertyOp17
 70
     1
102
RTVSPropertyOp18
 70
     1
102
RTVSPropertyOp19
 70
     1
102
RTVSPropertyOp20
 70
     1
102
RTVSPropertyOp21
 70
     1
102
RTVSPropertyOp22
 70
     1
102
RTVSPropertyOp23
 70
     1
102
RTVSPropertyOp24
 70
     1
102
RTVSPropertyOp25
 70
     1
102
RTVSPropertyOp26
 70
     1
102
RTVSPropertyOp27
 70
     1
102
RTVSPropertyOp28
 70
     1
102
RTVSPropertyOp29
 70
     1
102
RTVSPropertyOp30
 70
     1
102
RTVSPropertyOp31
 70
     1
102
RTVSPropertyOp32
 70
     1
102
RTVSPropertyOp33
 70
     1
102
RTVSPropertyOp34
 70
     1
102
RTVSPropertyOp35
 70
     1
102
RTVSPropertyOp36
 70
     1
102
RTVSPropertyOp37
 70
     1
102
RTVSPropertyOp38
 70
     1
102
RTVSPropertyOp39
 70
     1
102
RTVSPropertyOp40
 70
     1
102
RTVSPropertyOp41
 70
     1
102
RTVSPropertyOp42
 70
     1
102
RTVSPropertyOp43
 70
     1
102
RTVSPropertyOp44
 70
     1
102
RTVSPropertyOp45
 70
     1
102
RTVSPropertyOp46
 70
     1
102
RTVSPropertyOp47
 70
     1
102
RTVSPropertyOp48
 70
     1
102
RTVSPropertyOp49
 70
     1
102
RTVSPropertyOp50
 70
     1
102
RTVSPropertyOp51
 70
     0
102
RTVSPropertyOp52
 70
     0
102
RTVSPropertyOp53
 70
     1
102
RTVSPropertyOp54
 70
     1
102
RTVSPropertyOp55
 70
     1
102
RTVSPropertyOp56
 70
     1
102
RTVSPropertyOp57
 70
     1
102
RTVSPost2010Prop28
280
     0
102
RTVSPost2010PropOp28
 70
     1
102
RTVSPost2010Prop29
280
     1
102
RTVSPost2010PropOp29
 70
     1
102
RTVSPost2010Prop30
280
     1
102
RTVSPost2010PropOp30
 70
     1
102
RTVSPost2010Prop31
280
     0
102
RTVSPost2010PropOp31
 70
     1
102
RTVSPost2010Prop32
280
     0
102
RTVSPost2010PropOp32
 70
     1
102
RTVSPost2010Prop33
280
     0
102
RTVSPost2010PropOp33
 70
     1
102
RTVSPost2010Prop34
280
     0
102
RTVSPost2010PropOp34
 70
     1
102
RTVSPost2010Prop35
280
     0
102
RTVSPost2010PropOp35
 70
     1
102
RTVSPost2010Prop36
280
     0
102
RTVSPost2010PropOp36
 70
     1
102
RTVSPost2010Prop37
 90
       50
102
RTVSPost2010PropOp37
 70
     1
102
RTVSPost2010Prop38
140
0.0
102
RTVSPost2010PropOp38
 70
     1
102
RTVSPost2010Prop39
140
1.0
102
RTVSPost2010PropOp39
 70
     1
102
RTVSPost2010Prop40
 90
        0
102
RTVSPost2010PropOp40
 70
     1
102
RTVSPost2010Prop41ColorIndex
 90
       18
102
RTVSPost2010Prop41ColorRGB
 90
        0
102
RTVSPost2010PropOp41
 70
     1
102
RTVSPost2010Prop42
 90
       50
102
RTVSPost2010PropOp42
 70
     1
102
RTVSPost2010Prop43
 90
        3
102
RTVSPost2010PropOp43
 70
     1
102
RTVSPost2010Prop44ColorIndex
 90
        5
102
RTVSPost2010Prop44ColorRGB
 90
      255
102
RTVSPost2010PropOp44
 70
     1
102
RTVSPost2010Prop45
280
     0
102
RTVSPost2010PropOp45
 70
     1
102
RTVSPost2010Prop46
 90
       50
102
RTVSPost2010PropOp46
 70
     1
102
RTVSPost2010Prop47
 90
       50
102
RTVSPost2010PropOp47
 70
     1
102
RTVSPost2010Prop48
 90
       50
102
RTVSPost2010PropOp48
 70
     1
102
RTVSPost2010Prop49
280
     0
102
RTVSPost2010PropOp49
 70
     1
102
RTVSPost2010Prop50
 90
       50
102
RTVSPost2010PropOp50
 70
     1
102
RTVSPost2010Prop51ColorIndex
 90
      256
102
RTVSPost2010Prop51ColorRGB
 90
-16777216
102
RTVSPost2010PropOp51
 70
     0
102
RTVSPost2010Prop52
140
1.0
102
RTVSPost2010PropOp52
 70
     0
102
RTVSPost2010Prop53
 90
        2
102
RTVSPost2010PropOp53
 70
     1
102
RTVSPost2010Prop54
  1
strokes_ogs.tif
102
RTVSPost2010PropOp54
 70
     1
102
RTVSPost2010Prop55
280
     0
102
RTVSPost2010PropOp55
 70
     1
102
RTVSPost2010Prop56
140
1.0
102
RTVSPost2010PropOp56
 70
     1
102
RTVSPost2010Prop57
140
1.0
102
RTVSPost2010PropOp57
 70
     1
  0
ENDSEC
  0
EOF
