  0
SECTION
  2
HEADER
  9
$ACADVER
  1
AC1018
  9
$ACADMAINTVER
 70
     0
  9
$DWGCODEPAGE
  3
ANSI_1252
  9
$INSBASE
 10
0.0
 20
0.0
 30
0.0
  9
$EXTMIN
 10
-1.286628120447
 20
-0.416070929322
 30
0.0
  9
$EXTMAX
 10
25.866628874965
 20
10.928229070678
 30
0.0
  9
$LIMMIN
 10
0.0
 20
0.0
  9
$LIMMAX
 10
420.0
 20
297.0
  9
$ORTHOMODE
 70
     0
  9
$REGENMODE
 70
     1
  9
$FILLMODE
 70
     1
  9
$QTEXTMODE
 70
     0
  9
$MIRRTEXT
 70
     1
  9
$LTSCALE
 40
1.0
  9
$ATTMODE
 70
     1
  9
$TEXTSIZE
 40
2.5
  9
$TRACEWID
 40
1.0
  9
$TEXTSTYLE
  7
Standard
  9
$CLAYER
  8
0
  9
$CELTYPE
  6
ByLayer
  9
$CECOLOR
 62
   256
  9
$CELTSCALE
 40
1.0
  9
$DISPSILH
 70
     0
  9
$DIMSCALE
 40
1.0
  9
$DIMASZ
 40
2.5
  9
$DIMEXO
 40
0.625
  9
$DIMDLI
 40
3.75
  9
$DIMRND
 40
0.0
  9
$DIMDLE
 40
0.0
  9
$DIMEXE
 40
1.25
  9
$DIMTP
 40
0.0
  9
$DIMTM
 40
0.0
  9
$DIMTXT
 40
2.5
  9
$DIMCEN
 40
2.5
  9
$DIMTSZ
 40
0.0
  9
$DIMTOL
 70
     0
  9
$DIMLIM
 70
     0
  9
$DIMTIH
 70
     0
  9
$DIMTOH
 70
     0
  9
$DIMSE1
 70
     0
  9
$DIMSE2
 70
     0
  9
$DIMTAD
 70
     1
  9
$DIMZIN
 70
     8
  9
$DIMBLK
  1

  9
$DIMASO
 70
     1
  9
$DIMSHO
 70
     1
  9
$DIMPOST
  1

  9
$DIMAPOST
  1

  9
$DIMALT
 70
     0
  9
$DIMALTD
 70
     3
  9
$DIMALTF
 40
0.03937007874
  9
$DIMLFAC
 40
1.0
  9
$DIMTOFL
 70
     1
  9
$DIMTVP
 40
0.0
  9
$DIMTIX
 70
     0
  9
$DIMSOXD
 70
     0
  9
$DIMSAH
 70
     0
  9
$DIMBLK1
  1

  9
$DIMBLK2
  1

  9
$DIMSTYLE
  2
ISO-25
  9
$DIMCLRD
 70
     0
  9
$DIMCLRE
 70
     0
  9
$DIMCLRT
 70
     0
  9
$DIMTFAC
 40
1.0
  9
$DIMGAP
 40
0.625
  9
$DIMJUST
 70
     0
  9
$DIMSD1
 70
     0
  9
$DIMSD2
 70
     0
  9
$DIMTOLJ
 70
     0
  9
$DIMTZIN
 70
     8
  9
$DIMALTZ
 70
     0
  9
$DIMALTTZ
 70
     0
  9
$DIMUPT
 70
     0
  9
$DIMDEC
 70
     2
  9
$DIMTDEC
 70
     2
  9
$DIMALTU
 70
     2
  9
$DIMALTTD
 70
     3
  9
$DIMTXSTY
  7
Standard
  9
$DIMAUNIT
 70
     0
  9
$DIMADEC
 70
     0
  9
$DIMALTRND
 40
0.0
  9
$DIMAZIN
 70
     0
  9
$DIMDSEP
 70
    44
  9
$DIMATFIT
 70
     3
  9
$DIMFRAC
 70
     0
  9
$DIMLDRBLK
  1

  9
$DIMLUNIT
 70
     2
  9
$DIMLWD
 70
    -2
  9
$DIMLWE
 70
    -2
  9
$DIMTMOVE
 70
     0
  9
$LUNITS
 70
     2
  9
$LUPREC
 70
     4
  9
$SKETCHINC
 40
1.0
  9
$FILLETRAD
 40
10.0
  9
$AUNITS
 70
     0
  9
$AUPREC
 70
     0
  9
$MENU
  1
.
  9
$ELEVATION
 40
0.0
  9
$PELEVATION
 40
0.0
  9
$THICKNESS
 40
0.0
  9
$LIMCHECK
 70
     0
  9
$CHAMFERA
 40
0.0
  9
$CHAMFERB
 40
0.0
  9
$CHAMFERC
 40
0.0
  9
$CHAMFERD
 40
0.0
  9
$SKPOLY
 70
     0
  9
$TDCREATE
 40
2457081.384578889
  9
$TDUCREATE
 40
2457081.676245556
  9
$TDUPDATE
 40
2457081.384596586
  9
$TDUUPDATE
 40
2457081.676263252
  9
$TDINDWG
 40
0.0000000116
  9
$TDUSRTIMER
 40
0.0000000116
  9
$USRTIMER
 70
     1
  9
$ANGBASE
 50
0.0
  9
$ANGDIR
 70
     0
  9
$PDMODE
 70
     2
  9
$PDSIZE
 40
1.0
  9
$PLINEWID
 40
0.0
  9
$SPLFRAME
 70
     0
  9
$SPLINETYPE
 70
     6
  9
$SPLINESEGS
 70
     8
  9
$HANDSEED
  5
33A
  9
$SURFTAB1
 70
     6
  9
$SURFTAB2
 70
     6
  9
$SURFTYPE
 70
     6
  9
$SURFU
 70
     6
  9
$SURFV
 70
     6
  9
$UCSBASE
  2

  9
$UCSNAME
  2

  9
$UCSORG
 10
0.0
 20
0.0
 30
0.0
  9
$UCSXDIR
 10
1.0
 20
0.0
 30
0.0
  9
$UCSYDIR
 10
0.0
 20
1.0
 30
0.0
  9
$UCSORTHOREF
  2

  9
$UCSORTHOVIEW
 70
     0
  9
$UCSORGTOP
 10
0.0
 20
0.0
 30
0.0
  9
$UCSORGBOTTOM
 10
0.0
 20
0.0
 30
0.0
  9
$UCSORGLEFT
 10
0.0
 20
0.0
 30
0.0
  9
$UCSORGRIGHT
 10
0.0
 20
0.0
 30
0.0
  9
$UCSORGFRONT
 10
0.0
 20
0.0
 30
0.0
  9
$UCSORGBACK
 10
0.0
 20
0.0
 30
0.0
  9
$PUCSBASE
  2

  9
$PUCSNAME
  2

  9
$PUCSORG
 10
0.0
 20
0.0
 30
0.0
  9
$PUCSXDIR
 10
1.0
 20
0.0
 30
0.0
  9
$PUCSYDIR
 10
0.0
 20
1.0
 30
0.0
  9
$PUCSORTHOREF
  2

  9
$PUCSORTHOVIEW
 70
     0
  9
$PUCSORGTOP
 10
0.0
 20
0.0
 30
0.0
  9
$PUCSORGBOTTOM
 10
0.0
 20
0.0
 30
0.0
  9
$PUCSORGLEFT
 10
0.0
 20
0.0
 30
0.0
  9
$PUCSORGRIGHT
 10
0.0
 20
0.0
 30
0.0
  9
$PUCSORGFRONT
 10
0.0
 20
0.0
 30
0.0
  9
$PUCSORGBACK
 10
0.0
 20
0.0
 30
0.0
  9
$USERI1
 70
     0
  9
$USERI2
 70
     0
  9
$USERI3
 70
     0
  9
$USERI4
 70
     0
  9
$USERI5
 70
     0
  9
$USERR1
 40
0.0
  9
$USERR2
 40
0.0
  9
$USERR3
 40
0.0
  9
$USERR4
 40
0.0
  9
$USERR5
 40
0.0
  9
$WORLDVIEW
 70
     1
  9
$SHADEDGE
 70
     3
  9
$SHADEDIF
 70
    70
  9
$TILEMODE
 70
     1
  9
$MAXACTVP
 70
    64
  9
$PINSBASE
 10
0.0
 20
0.0
 30
0.0
  9
$PLIMCHECK
 70
     0
  9
$PEXTMIN
 10
1.000000000000E+20
 20
1.000000000000E+20
 30
1.000000000000E+20
  9
$PEXTMAX
 10
-1.000000000000E+20
 20
-1.000000000000E+20
 30
-1.000000000000E+20
  9
$PLIMMIN
 10
0.0
 20
0.0
  9
$PLIMMAX
 10
420.0
 20
297.0
  9
$UNITMODE
 70
     0
  9
$VISRETAIN
 70
     1
  9
$PLINEGEN
 70
     0
  9
$PSLTSCALE
 70
     1
  9
$TREEDEPTH
 70
  3020
  9
$CMLSTYLE
  2
Standard
  9
$CMLJUST
 70
     0
  9
$CMLSCALE
 40
20.0
  9
$PROXYGRAPHICS
 70
     1
  9
$MEASUREMENT
 70
     1
  9
$CELWEIGHT
370
    -1
  9
$ENDCAPS
280
     0
  9
$JOINSTYLE
280
     0
  9
$LWDISPLAY
290
     0
  9
$INSUNITS
 70
     4
  9
$HYPERLINKBASE
  1

  9
$STYLESHEET
  1

  9
$XEDIT
290
     1
  9
$CEPSNTYPE
380
     0
  9
$PSTYLEMODE
290
     1
  9
$FINGERPRINTGUID
  2
{5DC93665-0CB3-46AF-8CBC-E7943A7DFB01}
  9
$VERSIONGUID
  2
{FAEB1C32-E019-11D5-929B-00C0DF256EC4}
  9
$EXTNAMES
290
     1
  9
$PSVPSCALE
 40
0.0
  9
$OLESTARTUP
290
     0
  9
$SORTENTS
280
   127
  9
$INDEXCTL
280
     0
  9
$HIDETEXT
280
     1
  9
$XCLIPFRAME
290
     0
  9
$HALOGAP
280
     0
  9
$OBSCOLOR
 70
   257
  9
$OBSLTYPE
280
     0
  9
$INTERSECTIONDISPLAY
280
     0
  9
$INTERSECTIONCOLOR
 70
   257
  9
$DIMASSOC
280
     2
  9
$PROJECTNAME
  1

  0
ENDSEC
  0
SECTION
  2
CLASSES
  0
CLASS
  1
ACDBDICTIONARYWDFLT
  2
AcDbDictionaryWithDefault
  3
ObjectDBX Classes
 90
        0
 91
        4
280
     0
281
     0
  0
CLASS
  1
VISUALSTYLE
  2
AcDbVisualStyle
  3
ObjectDBX Classes
 90
     4095
 91
        4
280
     0
281
     0
  0
CLASS
  1
MATERIAL
  2
AcDbMaterial
  3
ObjectDBX Classes
 90
     1153
 91
        4
280
     0
281
     0
  0
CLASS
  1
SCALE
  2
AcDbScale
  3
ObjectDBX Classes
 90
     1153
 91
        4
280
     0
281
     0
  0
CLASS
  1
SUN
  2
AcDbSun
  3
SCENEOE
 90
     1153
 91
        4
280
     0
281
     0
  0
CLASS
  1
WIPEOUTVARIABLES
  2
AcDbWipeoutVariables
  3
WipeOut|AutoCAD Express Tool|expresstools@autodesk.com
 90
        0
 91
        4
280
     0
281
     0
  0
CLASS
  1
WIPEOUT
  2
AcDbWipeout
  3
WipeOut|AutoCAD Express Tool|expresstools@autodesk.com
 90
      127
 91
        4
280
     0
281
     1
  0
CLASS
  1
DICTIONARYVAR
  2
AcDbDictionaryVar
  3
ObjectDBX Classes
 90
        0
 91
        4
280
     0
281
     0
  0
ENDSEC
  0
SECTION
  2
TABLES
  0
TABLE
  2
VPORT
  5
8
102
{ACAD_XDICTIONARY
360
2FB
102
}
330
0
100
AcDbSymbolTable
 70
     1
  0
VPORT
  5
29
330
8
100
AcDbSymbolTableRecord
100
AcDbViewportTableRecord
  2
*Active
 70
     0
 10
0.0
 20
0.0
 11
1.0
 21
1.0
 12
12.290000377259
 22
5.256079070678
 13
0.0
 23
0.0
 14
10.0
 24
10.0
 15
10.0
 25
10.0
 16
0.0
 26
0.0
 36
1.0
 17
0.0
 27
0.0
 37
0.0
 40
11.3443
 41
2.393559496435
 42
50.0
 43
0.0
 44
0.0
 50
0.0
 51
0.0
 71
     0
 72
   100
 73
     1
 74
     3
 75
     0
 76
     0
 77
     0
 78
     0
281
     0
 65
     1
110
0.0
120
0.0
130
0.0
111
1.0
121
0.0
131
0.0
112
0.0
122
1.0
132
0.0
 79
     0
146
0.0
  0
ENDTAB
  0
TABLE
  2
LTYPE
  5
5
330
0
100
AcDbSymbolTable
 70
     2
  0
LTYPE
  5
14
330
5
100
AcDbSymbolTableRecord
100
AcDbLinetypeTableRecord
  2
ByBlock
 70
     0
  3

 72
    65
 73
     0
 40
0.0
  0
LTYPE
  5
15
330
5
100
AcDbSymbolTableRecord
100
AcDbLinetypeTableRecord
  2
ByLayer
 70
     0
  3

 72
    65
 73
     0
 40
0.0
  0
LTYPE
  5
16
330
5
100
AcDbSymbolTableRecord
100
AcDbLinetypeTableRecord
  2
Continuous
 70
     0
  3
Solid line
 72
    65
 73
     0
 40
0.0
  0
LTYPE
  5
6B
330
5
100
AcDbSymbolTableRecord
100
AcDbLinetypeTableRecord
  2
AUSGEZOGEN
 70
     0
  3

 72
    65
 73
     0
 40
0.0
  0
ENDTAB
  0
TABLE
  2
LAYER
  5
2
330
0
100
AcDbSymbolTable
 70
   257
  0
LAYER
  5
10
330
2
100
AcDbSymbolTableRecord
100
AcDbLayerTableRecord
  2
0
 70
     0
 62
     7
  6
Continuous
370
    -3
390
F
  0
LAYER
  5
70
330
2
100
AcDbSymbolTableRecord
100
AcDbLayerTableRecord
  2
PROFILE
 70
     0
 62
     7
  6
Continuous
370
    -3
390
F
  0
LAYER
  5
71
330
2
100
AcDbSymbolTableRecord
100
AcDbLayerTableRecord
  2
text
 70
     0
 62
     7
  6
Continuous
370
    -3
390
F
  0
LAYER
  5
72
330
2
100
AcDbSymbolTableRecord
100
AcDbLayerTableRecord
  2
Layer2
 70
     0
 62
     7
  6
Continuous
370
    -3
390
F
  0
LAYER
  5
73
330
2
100
AcDbSymbolTableRecord
100
AcDbLayerTableRecord
  2
Walls
 70
     0
 62
     7
  6
Continuous
370
    -3
390
F
  0
LAYER
  5
74
330
2
100
AcDbSymbolTableRecord
100
AcDbLayerTableRecord
  2
Doors
 70
     0
 62
     7
  6
Continuous
370
    -3
390
F
  0
LAYER
  5
75
330
2
100
AcDbSymbolTableRecord
100
AcDbLayerTableRecord
  2
Windows
 70
     0
 62
     7
  6
Continuous
370
    -3
390
F
  0
LAYER
  5
76
330
2
100
AcDbSymbolTableRecord
100
AcDbLayerTableRecord
  2
Water suply
 70
     0
 62
     7
  6
Continuous
370
    -3
390
F
  0
LAYER
  5
77
330
2
100
AcDbSymbolTableRecord
100
AcDbLayerTableRecord
  2
Electrical Wiring
 70
     0
 62
     7
  6
Continuous
370
    -3
390
F
  0
LAYER
  5
78
330
2
100
AcDbSymbolTableRecord
100
AcDbLayerTableRecord
  2
Heating
 70
     0
 62
     7
  6
Continuous
370
    -3
390
F
  0
LAYER
  5
79
330
2
100
AcDbSymbolTableRecord
100
AcDbLayerTableRecord
  2
Alarm System
 70
     0
 62
     7
  6
Continuous
370
    -3
390
F
  0
LAYER
  5
7A
330
2
100
AcDbSymbolTableRecord
100
AcDbLayerTableRecord
  2
TV Ariel
 70
     0
 62
     7
  6
Continuous
370
    -3
390
F
  0
LAYER
  5
7B
330
2
100
AcDbSymbolTableRecord
100
AcDbLayerTableRecord
  2
Interior
 70
     0
 62
     7
  6
Continuous
370
    -3
390
F
  0
LAYER
  5
7C
330
2
100
AcDbSymbolTableRecord
100
AcDbLayerTableRecord
  2
Kitchen fitting
 70
     0
 62
     7
  6
Continuous
370
    -3
390
F
  0
LAYER
  5
7D
330
2
100
AcDbSymbolTableRecord
100
AcDbLayerTableRecord
  2
Layer13
 70
     0
 62
     7
  6
Continuous
370
    -3
390
F
  0
LAYER
  5
7E
330
2
100
AcDbSymbolTableRecord
100
AcDbLayerTableRecord
  2
Layer14
 70
     0
 62
     7
  6
Continuous
370
    -3
390
F
  0
LAYER
  5
7F
330
2
100
AcDbSymbolTableRecord
100
AcDbLayerTableRecord
  2
Layer15
 70
     0
 62
     7
  6
Continuous
370
    -3
390
F
  0
LAYER
  5
80
330
2
100
AcDbSymbolTableRecord
100
AcDbLayerTableRecord
  2
Layer16
 70
     0
 62
     7
  6
Continuous
370
    -3
390
F
  0
LAYER
  5
81
330
2
100
AcDbSymbolTableRecord
100
AcDbLayerTableRecord
  2
Layer17
 70
     0
 62
     7
  6
Continuous
370
    -3
390
F
  0
LAYER
  5
82
330
2
100
AcDbSymbolTableRecord
100
AcDbLayerTableRecord
  2
Layer18
 70
     0
 62
     7
  6
Continuous
370
    -3
390
F
  0
LAYER
  5
83
330
2
100
AcDbSymbolTableRecord
100
AcDbLayerTableRecord
  2
Layer19
 70
     0
 62
     7
  6
Continuous
370
    -3
390
F
  0
LAYER
  5
84
330
2
100
AcDbSymbolTableRecord
100
AcDbLayerTableRecord
  2
Layer20
 70
     0
 62
     7
  6
Continuous
370
    -3
390
F
  0
LAYER
  5
85
330
2
100
AcDbSymbolTableRecord
100
AcDbLayerTableRecord
  2
Layer21
 70
     0
 62
     7
  6
Continuous
370
    -3
390
F
  0
LAYER
  5
86
330
2
100
AcDbSymbolTableRecord
100
AcDbLayerTableRecord
  2
Layer22
 70
     0
 62
     7
  6
Continuous
370
    -3
390
F
  0
LAYER
  5
87
330
2
100
AcDbSymbolTableRecord
100
AcDbLayerTableRecord
  2
Layer23
 70
     0
 62
     7
  6
Continuous
370
    -3
390
F
  0
LAYER
  5
88
330
2
100
AcDbSymbolTableRecord
100
AcDbLayerTableRecord
  2
Layer24
 70
     0
 62
     7
  6
Continuous
370
    -3
390
F
  0
LAYER
  5
89
330
2
100
AcDbSymbolTableRecord
100
AcDbLayerTableRecord
  2
Layer25
 70
     0
 62
     7
  6
Continuous
370
    -3
390
F
  0
LAYER
  5
8A
330
2
100
AcDbSymbolTableRecord
100
AcDbLayerTableRecord
  2
Layer26
 70
     0
 62
     7
  6
Continuous
370
    -3
390
F
  0
LAYER
  5
8B
330
2
100
AcDbSymbolTableRecord
100
AcDbLayerTableRecord
  2
Layer27
 70
     0
 62
     7
  6
Continuous
370
    -3
390
F
  0
LAYER
  5
8C
330
2
100
AcDbSymbolTableRecord
100
AcDbLayerTableRecord
  2
Layer28
 70
     0
 62
     7
  6
Continuous
370
    -3
390
F
  0
LAYER
  5
8D
330
2
100
AcDbSymbolTableRecord
100
AcDbLayerTableRecord
  2
Layer29
 70
     0
 62
     7
  6
Continuous
370
    -3
390
F
  0
LAYER
  5
8E
330
2
100
AcDbSymbolTableRecord
100
AcDbLayerTableRecord
  2
Layer30
 70
     0
 62
     7
  6
Continuous
370
    -3
390
F
  0
LAYER
  5
8F
330
2
100
AcDbSymbolTableRecord
100
AcDbLayerTableRecord
  2
Layer31
 70
     0
 62
     7
  6
Continuous
370
    -3
390
F
  0
LAYER
  5
90
330
2
100
AcDbSymbolTableRecord
100
AcDbLayerTableRecord
  2
Layer32
 70
     0
 62
     7
  6
Continuous
370
    -3
390
F
  0
LAYER
  5
91
330
2
100
AcDbSymbolTableRecord
100
AcDbLayerTableRecord
  2
Layer33
 70
     0
 62
     7
  6
Continuous
370
    -3
390
F
  0
LAYER
  5
92
330
2
100
AcDbSymbolTableRecord
100
AcDbLayerTableRecord
  2
Layer34
 70
     0
 62
     7
  6
Continuous
370
    -3
390
F
  0
LAYER
  5
93
330
2
100
AcDbSymbolTableRecord
100
AcDbLayerTableRecord
  2
Layer35
 70
     0
 62
     7
  6
Continuous
370
    -3
390
F
  0
LAYER
  5
94
330
2
100
AcDbSymbolTableRecord
100
AcDbLayerTableRecord
  2
Layer36
 70
     0
 62
     7
  6
Continuous
370
    -3
390
F
  0
LAYER
  5
95
330
2
100
AcDbSymbolTableRecord
100
AcDbLayerTableRecord
  2
Layer37
 70
     0
 62
     7
  6
Continuous
370
    -3
390
F
  0
LAYER
  5
96
330
2
100
AcDbSymbolTableRecord
100
AcDbLayerTableRecord
  2
Layer38
 70
     0
 62
     7
  6
Continuous
370
    -3
390
F
  0
LAYER
  5
97
330
2
100
AcDbSymbolTableRecord
100
AcDbLayerTableRecord
  2
Layer39
 70
     0
 62
     7
  6
Continuous
370
    -3
390
F
  0
LAYER
  5
98
330
2
100
AcDbSymbolTableRecord
100
AcDbLayerTableRecord
  2
Layer40
 70
     0
 62
     7
  6
Continuous
370
    -3
390
F
  0
LAYER
  5
99
330
2
100
AcDbSymbolTableRecord
100
AcDbLayerTableRecord
  2
Layer41
 70
     0
 62
     7
  6
Continuous
370
    -3
390
F
  0
LAYER
  5
9A
330
2
100
AcDbSymbolTableRecord
100
AcDbLayerTableRecord
  2
Layer42
 70
     0
 62
     7
  6
Continuous
370
    -3
390
F
  0
LAYER
  5
9B
330
2
100
AcDbSymbolTableRecord
100
AcDbLayerTableRecord
  2
Layer43
 70
     0
 62
     7
  6
Continuous
370
    -3
390
F
  0
LAYER
  5
9C
330
2
100
AcDbSymbolTableRecord
100
AcDbLayerTableRecord
  2
Layer44
 70
     0
 62
     7
  6
Continuous
370
    -3
390
F
  0
LAYER
  5
9D
330
2
100
AcDbSymbolTableRecord
100
AcDbLayerTableRecord
  2
Layer45
 70
     0
 62
     7
  6
Continuous
370
    -3
390
F
  0
LAYER
  5
9E
330
2
100
AcDbSymbolTableRecord
100
AcDbLayerTableRecord
  2
Layer46
 70
     0
 62
     7
  6
Continuous
370
    -3
390
F
  0
LAYER
  5
9F
330
2
100
AcDbSymbolTableRecord
100
AcDbLayerTableRecord
  2
Layer47
 70
     0
 62
     7
  6
Continuous
370
    -3
390
F
  0
LAYER
  5
A0
330
2
100
AcDbSymbolTableRecord
100
AcDbLayerTableRecord
  2
Layer48
 70
     0
 62
     7
  6
Continuous
370
    -3
390
F
  0
LAYER
  5
A1
330
2
100
AcDbSymbolTableRecord
100
AcDbLayerTableRecord
  2
Layer49
 70
     0
 62
     7
  6
Continuous
370
    -3
390
F
  0
LAYER
  5
A2
330
2
100
AcDbSymbolTableRecord
100
AcDbLayerTableRecord
  2
Layer50
 70
     0
 62
     7
  6
Continuous
370
    -3
390
F
  0
LAYER
  5
A3
330
2
100
AcDbSymbolTableRecord
100
AcDbLayerTableRecord
  2
Layer51
 70
     0
 62
     7
  6
Continuous
370
    -3
390
F
  0
LAYER
  5
A4
330
2
100
AcDbSymbolTableRecord
100
AcDbLayerTableRecord
  2
Layer52
 70
     0
 62
     7
  6
Continuous
370
    -3
390
F
  0
LAYER
  5
A5
330
2
100
AcDbSymbolTableRecord
100
AcDbLayerTableRecord
  2
Layer53
 70
     0
 62
     7
  6
Continuous
370
    -3
390
F
  0
LAYER
  5
A6
330
2
100
AcDbSymbolTableRecord
100
AcDbLayerTableRecord
  2
Layer54
 70
     0
 62
     7
  6
Continuous
370
    -3
390
F
  0
LAYER
  5
A7
330
2
100
AcDbSymbolTableRecord
100
AcDbLayerTableRecord
  2
Layer55
 70
     0
 62
     7
  6
Continuous
370
    -3
390
F
  0
LAYER
  5
A8
330
2
100
AcDbSymbolTableRecord
100
AcDbLayerTableRecord
  2
Layer56
 70
     0
 62
     7
  6
Continuous
370
    -3
390
F
  0
LAYER
  5
A9
330
2
100
AcDbSymbolTableRecord
100
AcDbLayerTableRecord
  2
Layer57
 70
     0
 62
     7
  6
Continuous
370
    -3
390
F
  0
LAYER
  5
AA
330
2
100
AcDbSymbolTableRecord
100
AcDbLayerTableRecord
  2
Layer58
 70
     0
 62
     7
  6
Continuous
370
    -3
390
F
  0
LAYER
  5
AB
330
2
100
AcDbSymbolTableRecord
100
AcDbLayerTableRecord
  2
Layer59
 70
     0
 62
     7
  6
Continuous
370
    -3
390
F
  0
LAYER
  5
AC
330
2
100
AcDbSymbolTableRecord
100
AcDbLayerTableRecord
  2
Layer60
 70
     0
 62
     7
  6
Continuous
370
    -3
390
F
  0
LAYER
  5
AD
330
2
100
AcDbSymbolTableRecord
100
AcDbLayerTableRecord
  2
Layer61
 70
     0
 62
     7
  6
Continuous
370
    -3
390
F
  0
LAYER
  5
AE
330
2
100
AcDbSymbolTableRecord
100
AcDbLayerTableRecord
  2
Layer62
 70
     0
 62
     7
  6
Continuous
370
    -3
390
F
  0
LAYER
  5
AF
330
2
100
AcDbSymbolTableRecord
100
AcDbLayerTableRecord
  2
Layer63
 70
     0
 62
     7
  6
Continuous
370
    -3
390
F
  0
LAYER
  5
B0
330
2
100
AcDbSymbolTableRecord
100
AcDbLayerTableRecord
  2
Layer64
 70
     0
 62
     7
  6
Continuous
370
    -3
390
F
  0
LAYER
  5
B1
330
2
100
AcDbSymbolTableRecord
100
AcDbLayerTableRecord
  2
Layer65
 70
     0
 62
     7
  6
Continuous
370
    -3
390
F
  0
LAYER
  5
B2
330
2
100
AcDbSymbolTableRecord
100
AcDbLayerTableRecord
  2
Layer66
 70
     0
 62
     7
  6
Continuous
370
    -3
390
F
  0
LAYER
  5
B3
330
2
100
AcDbSymbolTableRecord
100
AcDbLayerTableRecord
  2
Layer67
 70
     0
 62
     7
  6
Continuous
370
    -3
390
F
  0
LAYER
  5
B4
330
2
100
AcDbSymbolTableRecord
100
AcDbLayerTableRecord
  2
Layer68
 70
     0
 62
     7
  6
Continuous
370
    -3
390
F
  0
LAYER
  5
B5
330
2
100
AcDbSymbolTableRecord
100
AcDbLayerTableRecord
  2
Layer69
 70
     0
 62
     7
  6
Continuous
370
    -3
390
F
  0
LAYER
  5
B6
330
2
100
AcDbSymbolTableRecord
100
AcDbLayerTableRecord
  2
Layer70
 70
     0
 62
     7
  6
Continuous
370
    -3
390
F
  0
LAYER
  5
B7
330
2
100
AcDbSymbolTableRecord
100
AcDbLayerTableRecord
  2
Layer71
 70
     0
 62
     7
  6
Continuous
370
    -3
390
F
  0
LAYER
  5
B8
330
2
100
AcDbSymbolTableRecord
100
AcDbLayerTableRecord
  2
Layer72
 70
     0
 62
     7
  6
Continuous
370
    -3
390
F
  0
LAYER
  5
B9
330
2
100
AcDbSymbolTableRecord
100
AcDbLayerTableRecord
  2
Layer73
 70
     0
 62
     7
  6
Continuous
370
    -3
390
F
  0
LAYER
  5
BA
330
2
100
AcDbSymbolTableRecord
100
AcDbLayerTableRecord
  2
Layer74
 70
     0
 62
     7
  6
Continuous
370
    -3
390
F
  0
LAYER
  5
BB
330
2
100
AcDbSymbolTableRecord
100
AcDbLayerTableRecord
  2
Layer75
 70
     0
 62
     7
  6
Continuous
370
    -3
390
F
  0
LAYER
  5
BC
330
2
100
AcDbSymbolTableRecord
100
AcDbLayerTableRecord
  2
Layer76
 70
     0
 62
     7
  6
Continuous
370
    -3
390
F
  0
LAYER
  5
BD
330
2
100
AcDbSymbolTableRecord
100
AcDbLayerTableRecord
  2
Layer77
 70
     0
 62
     7
  6
Continuous
370
    -3
390
F
  0
LAYER
  5
BE
330
2
100
AcDbSymbolTableRecord
100
AcDbLayerTableRecord
  2
Layer78
 70
     0
 62
     7
  6
Continuous
370
    -3
390
F
  0
LAYER
  5
BF
330
2
100
AcDbSymbolTableRecord
100
AcDbLayerTableRecord
  2
Layer79
 70
     0
 62
     7
  6
Continuous
370
    -3
390
F
  0
LAYER
  5
C0
330
2
100
AcDbSymbolTableRecord
100
AcDbLayerTableRecord
  2
Layer80
 70
     0
 62
     7
  6
Continuous
370
    -3
390
F
  0
LAYER
  5
C1
330
2
100
AcDbSymbolTableRecord
100
AcDbLayerTableRecord
  2
Layer81
 70
     0
 62
     7
  6
Continuous
370
    -3
390
F
  0
LAYER
  5
C2
330
2
100
AcDbSymbolTableRecord
100
AcDbLayerTableRecord
  2
Layer82
 70
     0
 62
     7
  6
Continuous
370
    -3
390
F
  0
LAYER
  5
C3
330
2
100
AcDbSymbolTableRecord
100
AcDbLayerTableRecord
  2
Layer83
 70
     0
 62
     7
  6
Continuous
370
    -3
390
F
  0
LAYER
  5
C4
330
2
100
AcDbSymbolTableRecord
100
AcDbLayerTableRecord
  2
Layer84
 70
     0
 62
     7
  6
Continuous
370
    -3
390
F
  0
LAYER
  5
C5
330
2
100
AcDbSymbolTableRecord
100
AcDbLayerTableRecord
  2
Layer85
 70
     0
 62
     7
  6
Continuous
370
    -3
390
F
  0
LAYER
  5
C6
330
2
100
AcDbSymbolTableRecord
100
AcDbLayerTableRecord
  2
Layer86
 70
     0
 62
     7
  6
Continuous
370
    -3
390
F
  0
LAYER
  5
C7
330
2
100
AcDbSymbolTableRecord
100
AcDbLayerTableRecord
  2
Layer87
 70
     0
 62
     7
  6
Continuous
370
    -3
390
F
  0
LAYER
  5
C8
330
2
100
AcDbSymbolTableRecord
100
AcDbLayerTableRecord
  2
Layer88
 70
     0
 62
     7
  6
Continuous
370
    -3
390
F
  0
LAYER
  5
C9
330
2
100
AcDbSymbolTableRecord
100
AcDbLayerTableRecord
  2
Layer89
 70
     0
 62
     7
  6
Continuous
370
    -3
390
F
  0
LAYER
  5
CA
330
2
100
AcDbSymbolTableRecord
100
AcDbLayerTableRecord
  2
Layer90
 70
     0
 62
     7
  6
Continuous
370
    -3
390
F
  0
LAYER
  5
CB
330
2
100
AcDbSymbolTableRecord
100
AcDbLayerTableRecord
  2
Layer91
 70
     0
 62
     7
  6
Continuous
370
    -3
390
F
  0
LAYER
  5
CC
330
2
100
AcDbSymbolTableRecord
100
AcDbLayerTableRecord
  2
Layer92
 70
     0
 62
     7
  6
Continuous
370
    -3
390
F
  0
LAYER
  5
CD
330
2
100
AcDbSymbolTableRecord
100
AcDbLayerTableRecord
  2
Layer93
 70
     0
 62
     7
  6
Continuous
370
    -3
390
F
  0
LAYER
  5
CE
330
2
100
AcDbSymbolTableRecord
100
AcDbLayerTableRecord
  2
Layer94
 70
     0
 62
     7
  6
Continuous
370
    -3
390
F
  0
LAYER
  5
CF
330
2
100
AcDbSymbolTableRecord
100
AcDbLayerTableRecord
  2
Layer95
 70
     0
 62
     7
  6
Continuous
370
    -3
390
F
  0
LAYER
  5
D0
330
2
100
AcDbSymbolTableRecord
100
AcDbLayerTableRecord
  2
Layer96
 70
     0
 62
     7
  6
Continuous
370
    -3
390
F
  0
LAYER
  5
D1
330
2
100
AcDbSymbolTableRecord
100
AcDbLayerTableRecord
  2
Layer97
 70
     0
 62
     7
  6
Continuous
370
    -3
390
F
  0
LAYER
  5
D2
330
2
100
AcDbSymbolTableRecord
100
AcDbLayerTableRecord
  2
Layer98
 70
     0
 62
     7
  6
Continuous
370
    -3
390
F
  0
LAYER
  5
D3
330
2
100
AcDbSymbolTableRecord
100
AcDbLayerTableRecord
  2
Layer99
 70
     0
 62
     7
  6
Continuous
370
    -3
390
F
  0
LAYER
  5
D4
330
2
100
AcDbSymbolTableRecord
100
AcDbLayerTableRecord
  2
Layer100
 70
     0
 62
     7
  6
Continuous
370
    -3
390
F
  0
LAYER
  5
D5
330
2
100
AcDbSymbolTableRecord
100
AcDbLayerTableRecord
  2
Layer101
 70
     0
 62
     7
  6
Continuous
370
    -3
390
F
  0
LAYER
  5
D6
330
2
100
AcDbSymbolTableRecord
100
AcDbLayerTableRecord
  2
Layer102
 70
     0
 62
     7
  6
Continuous
370
    -3
390
F
  0
LAYER
  5
D7
330
2
100
AcDbSymbolTableRecord
100
AcDbLayerTableRecord
  2
Layer103
 70
     0
 62
     7
  6
Continuous
370
    -3
390
F
  0
LAYER
  5
D8
330
2
100
AcDbSymbolTableRecord
100
AcDbLayerTableRecord
  2
Layer104
 70
     0
 62
     7
  6
Continuous
370
    -3
390
F
  0
LAYER
  5
D9
330
2
100
AcDbSymbolTableRecord
100
AcDbLayerTableRecord
  2
Layer105
 70
     0
 62
     7
  6
Continuous
370
    -3
390
F
  0
LAYER
  5
DA
330
2
100
AcDbSymbolTableRecord
100
AcDbLayerTableRecord
  2
Layer106
 70
     0
 62
     7
  6
Continuous
370
    -3
390
F
  0
LAYER
  5
DB
330
2
100
AcDbSymbolTableRecord
100
AcDbLayerTableRecord
  2
Layer107
 70
     0
 62
     7
  6
Continuous
370
    -3
390
F
  0
LAYER
  5
DC
330
2
100
AcDbSymbolTableRecord
100
AcDbLayerTableRecord
  2
Layer108
 70
     0
 62
     7
  6
Continuous
370
    -3
390
F
  0
LAYER
  5
DD
330
2
100
AcDbSymbolTableRecord
100
AcDbLayerTableRecord
  2
Layer109
 70
     0
 62
     7
  6
Continuous
370
    -3
390
F
  0
LAYER
  5
DE
330
2
100
AcDbSymbolTableRecord
100
AcDbLayerTableRecord
  2
Layer110
 70
     0
 62
     7
  6
Continuous
370
    -3
390
F
  0
LAYER
  5
DF
330
2
100
AcDbSymbolTableRecord
100
AcDbLayerTableRecord
  2
Layer111
 70
     0
 62
     7
  6
Continuous
370
    -3
390
F
  0
LAYER
  5
E0
330
2
100
AcDbSymbolTableRecord
100
AcDbLayerTableRecord
  2
Layer112
 70
     0
 62
     7
  6
Continuous
370
    -3
390
F
  0
LAYER
  5
E1
330
2
100
AcDbSymbolTableRecord
100
AcDbLayerTableRecord
  2
Layer113
 70
     0
 62
     7
  6
Continuous
370
    -3
390
F
  0
LAYER
  5
E2
330
2
100
AcDbSymbolTableRecord
100
AcDbLayerTableRecord
  2
Layer114
 70
     0
 62
     7
  6
Continuous
370
    -3
390
F
  0
LAYER
  5
E3
330
2
100
AcDbSymbolTableRecord
100
AcDbLayerTableRecord
  2
Layer115
 70
     0
 62
     7
  6
Continuous
370
    -3
390
F
  0
LAYER
  5
E4
330
2
100
AcDbSymbolTableRecord
100
AcDbLayerTableRecord
  2
Layer116
 70
     0
 62
     7
  6
Continuous
370
    -3
390
F
  0
LAYER
  5
E5
330
2
100
AcDbSymbolTableRecord
100
AcDbLayerTableRecord
  2
Layer117
 70
     0
 62
     7
  6
Continuous
370
    -3
390
F
  0
LAYER
  5
E6
330
2
100
AcDbSymbolTableRecord
100
AcDbLayerTableRecord
  2
Layer118
 70
     0
 62
     7
  6
Continuous
370
    -3
390
F
  0
LAYER
  5
E7
330
2
100
AcDbSymbolTableRecord
100
AcDbLayerTableRecord
  2
Layer119
 70
     0
 62
     7
  6
Continuous
370
    -3
390
F
  0
LAYER
  5
E8
330
2
100
AcDbSymbolTableRecord
100
AcDbLayerTableRecord
  2
Layer120
 70
     0
 62
     7
  6
Continuous
370
    -3
390
F
  0
LAYER
  5
E9
330
2
100
AcDbSymbolTableRecord
100
AcDbLayerTableRecord
  2
Layer121
 70
     0
 62
     7
  6
Continuous
370
    -3
390
F
  0
LAYER
  5
EA
330
2
100
AcDbSymbolTableRecord
100
AcDbLayerTableRecord
  2
Layer122
 70
     0
 62
     7
  6
Continuous
370
    -3
390
F
  0
LAYER
  5
EB
330
2
100
AcDbSymbolTableRecord
100
AcDbLayerTableRecord
  2
Layer123
 70
     0
 62
     7
  6
Continuous
370
    -3
390
F
  0
LAYER
  5
EC
330
2
100
AcDbSymbolTableRecord
100
AcDbLayerTableRecord
  2
Layer124
 70
     0
 62
     7
  6
Continuous
370
    -3
390
F
  0
LAYER
  5
ED
330
2
100
AcDbSymbolTableRecord
100
AcDbLayerTableRecord
  2
Layer125
 70
     0
 62
     7
  6
Continuous
370
    -3
390
F
  0
LAYER
  5
EE
330
2
100
AcDbSymbolTableRecord
100
AcDbLayerTableRecord
  2
Layer126
 70
     0
 62
     7
  6
Continuous
370
    -3
390
F
  0
LAYER
  5
EF
330
2
100
AcDbSymbolTableRecord
100
AcDbLayerTableRecord
  2
Layer127
 70
     0
 62
     7
  6
Continuous
370
    -3
390
F
  0
LAYER
  5
F0
330
2
100
AcDbSymbolTableRecord
100
AcDbLayerTableRecord
  2
Layer128
 70
     0
 62
     7
  6
Continuous
370
    -3
390
F
  0
LAYER
  5
F1
330
2
100
AcDbSymbolTableRecord
100
AcDbLayerTableRecord
  2
Layer129
 70
     0
 62
     7
  6
Continuous
370
    -3
390
F
  0
LAYER
  5
F2
330
2
100
AcDbSymbolTableRecord
100
AcDbLayerTableRecord
  2
Layer130
 70
     0
 62
     7
  6
Continuous
370
    -3
390
F
  0
LAYER
  5
F3
330
2
100
AcDbSymbolTableRecord
100
AcDbLayerTableRecord
  2
Layer131
 70
     0
 62
     7
  6
Continuous
370
    -3
390
F
  0
LAYER
  5
F4
330
2
100
AcDbSymbolTableRecord
100
AcDbLayerTableRecord
  2
Layer132
 70
     0
 62
     7
  6
Continuous
370
    -3
390
F
  0
LAYER
  5
F5
330
2
100
AcDbSymbolTableRecord
100
AcDbLayerTableRecord
  2
Layer133
 70
     0
 62
     7
  6
Continuous
370
    -3
390
F
  0
LAYER
  5
F6
330
2
100
AcDbSymbolTableRecord
100
AcDbLayerTableRecord
  2
Layer134
 70
     0
 62
     7
  6
Continuous
370
    -3
390
F
  0
LAYER
  5
F7
330
2
100
AcDbSymbolTableRecord
100
AcDbLayerTableRecord
  2
Layer135
 70
     0
 62
     7
  6
Continuous
370
    -3
390
F
  0
LAYER
  5
F8
330
2
100
AcDbSymbolTableRecord
100
AcDbLayerTableRecord
  2
Layer136
 70
     0
 62
     7
  6
Continuous
370
    -3
390
F
  0
LAYER
  5
F9
330
2
100
AcDbSymbolTableRecord
100
AcDbLayerTableRecord
  2
Layer137
 70
     0
 62
     7
  6
Continuous
370
    -3
390
F
  0
LAYER
  5
FA
330
2
100
AcDbSymbolTableRecord
100
AcDbLayerTableRecord
  2
Layer138
 70
     0
 62
     7
  6
Continuous
370
    -3
390
F
  0
LAYER
  5
FB
330
2
100
AcDbSymbolTableRecord
100
AcDbLayerTableRecord
  2
Layer139
 70
     0
 62
     7
  6
Continuous
370
    -3
390
F
  0
LAYER
  5
FC
330
2
100
AcDbSymbolTableRecord
100
AcDbLayerTableRecord
  2
Layer140
 70
     0
 62
     7
  6
Continuous
370
    -3
390
F
  0
LAYER
  5
FD
330
2
100
AcDbSymbolTableRecord
100
AcDbLayerTableRecord
  2
Layer141
 70
     0
 62
     7
  6
Continuous
370
    -3
390
F
  0
LAYER
  5
FE
330
2
100
AcDbSymbolTableRecord
100
AcDbLayerTableRecord
  2
Layer142
 70
     0
 62
     7
  6
Continuous
370
    -3
390
F
  0
LAYER
  5
FF
330
2
100
AcDbSymbolTableRecord
100
AcDbLayerTableRecord
  2
Layer143
 70
     0
 62
     7
  6
Continuous
370
    -3
390
F
  0
LAYER
  5
100
330
2
100
AcDbSymbolTableRecord
100
AcDbLayerTableRecord
  2
Layer144
 70
     0
 62
     7
  6
Continuous
370
    -3
390
F
  0
LAYER
  5
101
330
2
100
AcDbSymbolTableRecord
100
AcDbLayerTableRecord
  2
Layer145
 70
     0
 62
     7
  6
Continuous
370
    -3
390
F
  0
LAYER
  5
102
330
2
100
AcDbSymbolTableRecord
100
AcDbLayerTableRecord
  2
Layer146
 70
     0
 62
     7
  6
Continuous
370
    -3
390
F
  0
LAYER
  5
103
330
2
100
AcDbSymbolTableRecord
100
AcDbLayerTableRecord
  2
Layer147
 70
     0
 62
     7
  6
Continuous
370
    -3
390
F
  0
LAYER
  5
104
330
2
100
AcDbSymbolTableRecord
100
AcDbLayerTableRecord
  2
Layer148
 70
     0
 62
     7
  6
Continuous
370
    -3
390
F
  0
LAYER
  5
105
330
2
100
AcDbSymbolTableRecord
100
AcDbLayerTableRecord
  2
Layer149
 70
     0
 62
     7
  6
Continuous
370
    -3
390
F
  0
LAYER
  5
106
330
2
100
AcDbSymbolTableRecord
100
AcDbLayerTableRecord
  2
Layer150
 70
     0
 62
     7
  6
Continuous
370
    -3
390
F
  0
LAYER
  5
107
330
2
100
AcDbSymbolTableRecord
100
AcDbLayerTableRecord
  2
Layer151
 70
     0
 62
     7
  6
Continuous
370
    -3
390
F
  0
LAYER
  5
108
330
2
100
AcDbSymbolTableRecord
100
AcDbLayerTableRecord
  2
Layer152
 70
     0
 62
     7
  6
Continuous
370
    -3
390
F
  0
LAYER
  5
109
330
2
100
AcDbSymbolTableRecord
100
AcDbLayerTableRecord
  2
Layer153
 70
     0
 62
     7
  6
Continuous
370
    -3
390
F
  0
LAYER
  5
10A
330
2
100
AcDbSymbolTableRecord
100
AcDbLayerTableRecord
  2
Layer154
 70
     0
 62
     7
  6
Continuous
370
    -3
390
F
  0
LAYER
  5
10B
330
2
100
AcDbSymbolTableRecord
100
AcDbLayerTableRecord
  2
Layer155
 70
     0
 62
     7
  6
Continuous
370
    -3
390
F
  0
LAYER
  5
10C
330
2
100
AcDbSymbolTableRecord
100
AcDbLayerTableRecord
  2
Layer156
 70
     0
 62
     7
  6
Continuous
370
    -3
390
F
  0
LAYER
  5
10D
330
2
100
AcDbSymbolTableRecord
100
AcDbLayerTableRecord
  2
Layer157
 70
     0
 62
     7
  6
Continuous
370
    -3
390
F
  0
LAYER
  5
10E
330
2
100
AcDbSymbolTableRecord
100
AcDbLayerTableRecord
  2
Layer158
 70
     0
 62
     7
  6
Continuous
370
    -3
390
F
  0
LAYER
  5
10F
330
2
100
AcDbSymbolTableRecord
100
AcDbLayerTableRecord
  2
Layer159
 70
     0
 62
     7
  6
Continuous
370
    -3
390
F
  0
LAYER
  5
110
330
2
100
AcDbSymbolTableRecord
100
AcDbLayerTableRecord
  2
Layer160
 70
     0
 62
     7
  6
Continuous
370
    -3
390
F
  0
LAYER
  5
111
330
2
100
AcDbSymbolTableRecord
100
AcDbLayerTableRecord
  2
Layer161
 70
     0
 62
     7
  6
Continuous
370
    -3
390
F
  0
LAYER
  5
112
330
2
100
AcDbSymbolTableRecord
100
AcDbLayerTableRecord
  2
Layer162
 70
     0
 62
     7
  6
Continuous
370
    -3
390
F
  0
LAYER
  5
113
330
2
100
AcDbSymbolTableRecord
100
AcDbLayerTableRecord
  2
Layer163
 70
     0
 62
     7
  6
Continuous
370
    -3
390
F
  0
LAYER
  5
114
330
2
100
AcDbSymbolTableRecord
100
AcDbLayerTableRecord
  2
Layer164
 70
     0
 62
     7
  6
Continuous
370
    -3
390
F
  0
LAYER
  5
115
330
2
100
AcDbSymbolTableRecord
100
AcDbLayerTableRecord
  2
Layer165
 70
     0
 62
     7
  6
Continuous
370
    -3
390
F
  0
LAYER
  5
116
330
2
100
AcDbSymbolTableRecord
100
AcDbLayerTableRecord
  2
Layer166
 70
     0
 62
     7
  6
Continuous
370
    -3
390
F
  0
LAYER
  5
117
330
2
100
AcDbSymbolTableRecord
100
AcDbLayerTableRecord
  2
Layer167
 70
     0
 62
     7
  6
Continuous
370
    -3
390
F
  0
LAYER
  5
118
330
2
100
AcDbSymbolTableRecord
100
AcDbLayerTableRecord
  2
Layer168
 70
     0
 62
     7
  6
Continuous
370
    -3
390
F
  0
LAYER
  5
119
330
2
100
AcDbSymbolTableRecord
100
AcDbLayerTableRecord
  2
Layer169
 70
     0
 62
     7
  6
Continuous
370
    -3
390
F
  0
LAYER
  5
11A
330
2
100
AcDbSymbolTableRecord
100
AcDbLayerTableRecord
  2
Layer170
 70
     0
 62
     7
  6
Continuous
370
    -3
390
F
  0
LAYER
  5
11B
330
2
100
AcDbSymbolTableRecord
100
AcDbLayerTableRecord
  2
Layer171
 70
     0
 62
     7
  6
Continuous
370
    -3
390
F
  0
LAYER
  5
11C
330
2
100
AcDbSymbolTableRecord
100
AcDbLayerTableRecord
  2
Layer172
 70
     0
 62
     7
  6
Continuous
370
    -3
390
F
  0
LAYER
  5
11D
330
2
100
AcDbSymbolTableRecord
100
AcDbLayerTableRecord
  2
Layer173
 70
     0
 62
     7
  6
Continuous
370
    -3
390
F
  0
LAYER
  5
11E
330
2
100
AcDbSymbolTableRecord
100
AcDbLayerTableRecord
  2
Layer174
 70
     0
 62
     7
  6
Continuous
370
    -3
390
F
  0
LAYER
  5
11F
330
2
100
AcDbSymbolTableRecord
100
AcDbLayerTableRecord
  2
Layer175
 70
     0
 62
     7
  6
Continuous
370
    -3
390
F
  0
LAYER
  5
120
330
2
100
AcDbSymbolTableRecord
100
AcDbLayerTableRecord
  2
Layer176
 70
     0
 62
     7
  6
Continuous
370
    -3
390
F
  0
LAYER
  5
121
330
2
100
AcDbSymbolTableRecord
100
AcDbLayerTableRecord
  2
Layer177
 70
     0
 62
     7
  6
Continuous
370
    -3
390
F
  0
LAYER
  5
122
330
2
100
AcDbSymbolTableRecord
100
AcDbLayerTableRecord
  2
Layer178
 70
     0
 62
     7
  6
Continuous
370
    -3
390
F
  0
LAYER
  5
123
330
2
100
AcDbSymbolTableRecord
100
AcDbLayerTableRecord
  2
Layer179
 70
     0
 62
     7
  6
Continuous
370
    -3
390
F
  0
LAYER
  5
124
330
2
100
AcDbSymbolTableRecord
100
AcDbLayerTableRecord
  2
Layer180
 70
     0
 62
     7
  6
Continuous
370
    -3
390
F
  0
LAYER
  5
125
330
2
100
AcDbSymbolTableRecord
100
AcDbLayerTableRecord
  2
Layer181
 70
     0
 62
     7
  6
Continuous
370
    -3
390
F
  0
LAYER
  5
126
330
2
100
AcDbSymbolTableRecord
100
AcDbLayerTableRecord
  2
Layer182
 70
     0
 62
     7
  6
Continuous
370
    -3
390
F
  0
LAYER
  5
127
330
2
100
AcDbSymbolTableRecord
100
AcDbLayerTableRecord
  2
Layer183
 70
     0
 62
     7
  6
Continuous
370
    -3
390
F
  0
LAYER
  5
128
330
2
100
AcDbSymbolTableRecord
100
AcDbLayerTableRecord
  2
Layer184
 70
     0
 62
     7
  6
Continuous
370
    -3
390
F
  0
LAYER
  5
129
330
2
100
AcDbSymbolTableRecord
100
AcDbLayerTableRecord
  2
Layer185
 70
     0
 62
     7
  6
Continuous
370
    -3
390
F
  0
LAYER
  5
12A
330
2
100
AcDbSymbolTableRecord
100
AcDbLayerTableRecord
  2
Layer186
 70
     0
 62
     7
  6
Continuous
370
    -3
390
F
  0
LAYER
  5
12B
330
2
100
AcDbSymbolTableRecord
100
AcDbLayerTableRecord
  2
Layer187
 70
     0
 62
     7
  6
Continuous
370
    -3
390
F
  0
LAYER
  5
12C
330
2
100
AcDbSymbolTableRecord
100
AcDbLayerTableRecord
  2
Layer188
 70
     0
 62
     7
  6
Continuous
370
    -3
390
F
  0
LAYER
  5
12D
330
2
100
AcDbSymbolTableRecord
100
AcDbLayerTableRecord
  2
Layer189
 70
     0
 62
     7
  6
Continuous
370
    -3
390
F
  0
LAYER
  5
12E
330
2
100
AcDbSymbolTableRecord
100
AcDbLayerTableRecord
  2
Layer190
 70
     0
 62
     7
  6
Continuous
370
    -3
390
F
  0
LAYER
  5
12F
330
2
100
AcDbSymbolTableRecord
100
AcDbLayerTableRecord
  2
Layer191
 70
     0
 62
     7
  6
Continuous
370
    -3
390
F
  0
LAYER
  5
130
330
2
100
AcDbSymbolTableRecord
100
AcDbLayerTableRecord
  2
Layer192
 70
     0
 62
     7
  6
Continuous
370
    -3
390
F
  0
LAYER
  5
131
330
2
100
AcDbSymbolTableRecord
100
AcDbLayerTableRecord
  2
Layer193
 70
     0
 62
     7
  6
Continuous
370
    -3
390
F
  0
LAYER
  5
132
330
2
100
AcDbSymbolTableRecord
100
AcDbLayerTableRecord
  2
Layer194
 70
     0
 62
     7
  6
Continuous
370
    -3
390
F
  0
LAYER
  5
133
330
2
100
AcDbSymbolTableRecord
100
AcDbLayerTableRecord
  2
Layer195
 70
     0
 62
     7
  6
Continuous
370
    -3
390
F
  0
LAYER
  5
134
330
2
100
AcDbSymbolTableRecord
100
AcDbLayerTableRecord
  2
Layer196
 70
     0
 62
     7
  6
Continuous
370
    -3
390
F
  0
LAYER
  5
135
330
2
100
AcDbSymbolTableRecord
100
AcDbLayerTableRecord
  2
Layer197
 70
     0
 62
     7
  6
Continuous
370
    -3
390
F
  0
LAYER
  5
136
330
2
100
AcDbSymbolTableRecord
100
AcDbLayerTableRecord
  2
Layer198
 70
     0
 62
     7
  6
Continuous
370
    -3
390
F
  0
LAYER
  5
137
330
2
100
AcDbSymbolTableRecord
100
AcDbLayerTableRecord
  2
Layer199
 70
     0
 62
     7
  6
Continuous
370
    -3
390
F
  0
LAYER
  5
138
330
2
100
AcDbSymbolTableRecord
100
AcDbLayerTableRecord
  2
Layer200
 70
     0
 62
     7
  6
Continuous
370
    -3
390
F
  0
LAYER
  5
139
330
2
100
AcDbSymbolTableRecord
100
AcDbLayerTableRecord
  2
Layer201
 70
     0
 62
     7
  6
Continuous
370
    -3
390
F
  0
LAYER
  5
13A
330
2
100
AcDbSymbolTableRecord
100
AcDbLayerTableRecord
  2
Layer202
 70
     0
 62
     7
  6
Continuous
370
    -3
390
F
  0
LAYER
  5
13B
330
2
100
AcDbSymbolTableRecord
100
AcDbLayerTableRecord
  2
Layer203
 70
     0
 62
     7
  6
Continuous
370
    -3
390
F
  0
LAYER
  5
13C
330
2
100
AcDbSymbolTableRecord
100
AcDbLayerTableRecord
  2
Layer204
 70
     0
 62
     7
  6
Continuous
370
    -3
390
F
  0
LAYER
  5
13D
330
2
100
AcDbSymbolTableRecord
100
AcDbLayerTableRecord
  2
Layer205
 70
     0
 62
     7
  6
Continuous
370
    -3
390
F
  0
LAYER
  5
13E
330
2
100
AcDbSymbolTableRecord
100
AcDbLayerTableRecord
  2
Layer206
 70
     0
 62
     7
  6
Continuous
370
    -3
390
F
  0
LAYER
  5
13F
330
2
100
AcDbSymbolTableRecord
100
AcDbLayerTableRecord
  2
Layer207
 70
     0
 62
     7
  6
Continuous
370
    -3
390
F
  0
LAYER
  5
140
330
2
100
AcDbSymbolTableRecord
100
AcDbLayerTableRecord
  2
Layer208
 70
     0
 62
     7
  6
Continuous
370
    -3
390
F
  0
LAYER
  5
141
330
2
100
AcDbSymbolTableRecord
100
AcDbLayerTableRecord
  2
Layer209
 70
     0
 62
     7
  6
Continuous
370
    -3
390
F
  0
LAYER
  5
142
330
2
100
AcDbSymbolTableRecord
100
AcDbLayerTableRecord
  2
Layer210
 70
     0
 62
     7
  6
Continuous
370
    -3
390
F
  0
LAYER
  5
143
330
2
100
AcDbSymbolTableRecord
100
AcDbLayerTableRecord
  2
Layer211
 70
     0
 62
     7
  6
Continuous
370
    -3
390
F
  0
LAYER
  5
144
330
2
100
AcDbSymbolTableRecord
100
AcDbLayerTableRecord
  2
Layer212
 70
     0
 62
     7
  6
Continuous
370
    -3
390
F
  0
LAYER
  5
145
330
2
100
AcDbSymbolTableRecord
100
AcDbLayerTableRecord
  2
Layer213
 70
     0
 62
     7
  6
Continuous
370
    -3
390
F
  0
LAYER
  5
146
330
2
100
AcDbSymbolTableRecord
100
AcDbLayerTableRecord
  2
Layer214
 70
     0
 62
     7
  6
Continuous
370
    -3
390
F
  0
LAYER
  5
147
330
2
100
AcDbSymbolTableRecord
100
AcDbLayerTableRecord
  2
Layer215
 70
     0
 62
     7
  6
Continuous
370
    -3
390
F
  0
LAYER
  5
148
330
2
100
AcDbSymbolTableRecord
100
AcDbLayerTableRecord
  2
Layer216
 70
     0
 62
     7
  6
Continuous
370
    -3
390
F
  0
LAYER
  5
149
330
2
100
AcDbSymbolTableRecord
100
AcDbLayerTableRecord
  2
Layer217
 70
     0
 62
     7
  6
Continuous
370
    -3
390
F
  0
LAYER
  5
14A
330
2
100
AcDbSymbolTableRecord
100
AcDbLayerTableRecord
  2
Layer218
 70
     0
 62
     7
  6
Continuous
370
    -3
390
F
  0
LAYER
  5
14B
330
2
100
AcDbSymbolTableRecord
100
AcDbLayerTableRecord
  2
Layer219
 70
     0
 62
     7
  6
Continuous
370
    -3
390
F
  0
LAYER
  5
14C
330
2
100
AcDbSymbolTableRecord
100
AcDbLayerTableRecord
  2
Layer220
 70
     0
 62
     7
  6
Continuous
370
    -3
390
F
  0
LAYER
  5
14D
330
2
100
AcDbSymbolTableRecord
100
AcDbLayerTableRecord
  2
Layer221
 70
     0
 62
     7
  6
Continuous
370
    -3
390
F
  0
LAYER
  5
14E
330
2
100
AcDbSymbolTableRecord
100
AcDbLayerTableRecord
  2
Layer222
 70
     0
 62
     7
  6
Continuous
370
    -3
390
F
  0
LAYER
  5
14F
330
2
100
AcDbSymbolTableRecord
100
AcDbLayerTableRecord
  2
Layer223
 70
     0
 62
     7
  6
Continuous
370
    -3
390
F
  0
LAYER
  5
150
330
2
100
AcDbSymbolTableRecord
100
AcDbLayerTableRecord
  2
Layer224
 70
     0
 62
     7
  6
Continuous
370
    -3
390
F
  0
LAYER
  5
151
330
2
100
AcDbSymbolTableRecord
100
AcDbLayerTableRecord
  2
Layer225
 70
     0
 62
     7
  6
Continuous
370
    -3
390
F
  0
LAYER
  5
152
330
2
100
AcDbSymbolTableRecord
100
AcDbLayerTableRecord
  2
Layer226
 70
     0
 62
     7
  6
Continuous
370
    -3
390
F
  0
LAYER
  5
153
330
2
100
AcDbSymbolTableRecord
100
AcDbLayerTableRecord
  2
Layer227
 70
     0
 62
     7
  6
Continuous
370
    -3
390
F
  0
LAYER
  5
154
330
2
100
AcDbSymbolTableRecord
100
AcDbLayerTableRecord
  2
Layer228
 70
     0
 62
     7
  6
Continuous
370
    -3
390
F
  0
LAYER
  5
155
330
2
100
AcDbSymbolTableRecord
100
AcDbLayerTableRecord
  2
Layer229
 70
     0
 62
     7
  6
Continuous
370
    -3
390
F
  0
LAYER
  5
156
330
2
100
AcDbSymbolTableRecord
100
AcDbLayerTableRecord
  2
Layer230
 70
     0
 62
     7
  6
Continuous
370
    -3
390
F
  0
LAYER
  5
157
330
2
100
AcDbSymbolTableRecord
100
AcDbLayerTableRecord
  2
Layer231
 70
     0
 62
     7
  6
Continuous
370
    -3
390
F
  0
LAYER
  5
158
330
2
100
AcDbSymbolTableRecord
100
AcDbLayerTableRecord
  2
Layer232
 70
     0
 62
     7
  6
Continuous
370
    -3
390
F
  0
LAYER
  5
159
330
2
100
AcDbSymbolTableRecord
100
AcDbLayerTableRecord
  2
Layer233
 70
     0
 62
     7
  6
Continuous
370
    -3
390
F
  0
LAYER
  5
15A
330
2
100
AcDbSymbolTableRecord
100
AcDbLayerTableRecord
  2
Layer234
 70
     0
 62
     7
  6
Continuous
370
    -3
390
F
  0
LAYER
  5
15B
330
2
100
AcDbSymbolTableRecord
100
AcDbLayerTableRecord
  2
Layer235
 70
     0
 62
     7
  6
Continuous
370
    -3
390
F
  0
LAYER
  5
15C
330
2
100
AcDbSymbolTableRecord
100
AcDbLayerTableRecord
  2
Layer236
 70
     0
 62
     7
  6
Continuous
370
    -3
390
F
  0
LAYER
  5
15D
330
2
100
AcDbSymbolTableRecord
100
AcDbLayerTableRecord
  2
Layer237
 70
     0
 62
     7
  6
Continuous
370
    -3
390
F
  0
LAYER
  5
15E
330
2
100
AcDbSymbolTableRecord
100
AcDbLayerTableRecord
  2
Layer238
 70
     0
 62
     7
  6
Continuous
370
    -3
390
F
  0
LAYER
  5
15F
330
2
100
AcDbSymbolTableRecord
100
AcDbLayerTableRecord
  2
Layer239
 70
     0
 62
     7
  6
Continuous
370
    -3
390
F
  0
LAYER
  5
160
330
2
100
AcDbSymbolTableRecord
100
AcDbLayerTableRecord
  2
Layer240
 70
     0
 62
     7
  6
Continuous
370
    -3
390
F
  0
LAYER
  5
161
330
2
100
AcDbSymbolTableRecord
100
AcDbLayerTableRecord
  2
Layer241
 70
     0
 62
     7
  6
Continuous
370
    -3
390
F
  0
LAYER
  5
162
330
2
100
AcDbSymbolTableRecord
100
AcDbLayerTableRecord
  2
Layer242
 70
     0
 62
     7
  6
Continuous
370
    -3
390
F
  0
LAYER
  5
163
330
2
100
AcDbSymbolTableRecord
100
AcDbLayerTableRecord
  2
Layer243
 70
     0
 62
     7
  6
Continuous
370
    -3
390
F
  0
LAYER
  5
164
330
2
100
AcDbSymbolTableRecord
100
AcDbLayerTableRecord
  2
Layer244
 70
     0
 62
     7
  6
Continuous
370
    -3
390
F
  0
LAYER
  5
165
330
2
100
AcDbSymbolTableRecord
100
AcDbLayerTableRecord
  2
Layer245
 70
     0
 62
     7
  6
Continuous
370
    -3
390
F
  0
LAYER
  5
166
330
2
100
AcDbSymbolTableRecord
100
AcDbLayerTableRecord
  2
Layer246
 70
     0
 62
     7
  6
Continuous
370
    -3
390
F
  0
LAYER
  5
167
330
2
100
AcDbSymbolTableRecord
100
AcDbLayerTableRecord
  2
Layer247
 70
     0
 62
     7
  6
Continuous
370
    -3
390
F
  0
LAYER
  5
168
330
2
100
AcDbSymbolTableRecord
100
AcDbLayerTableRecord
  2
Layer248
 70
     0
 62
     7
  6
Continuous
370
    -3
390
F
  0
LAYER
  5
169
330
2
100
AcDbSymbolTableRecord
100
AcDbLayerTableRecord
  2
Layer249
 70
     0
 62
     7
  6
Continuous
370
    -3
390
F
  0
LAYER
  5
16A
330
2
100
AcDbSymbolTableRecord
100
AcDbLayerTableRecord
  2
Layer250
 70
     0
 62
     7
  6
Continuous
370
    -3
390
F
  0
LAYER
  5
16B
330
2
100
AcDbSymbolTableRecord
100
AcDbLayerTableRecord
  2
Layer251
 70
     0
 62
     7
  6
Continuous
370
    -3
390
F
  0
LAYER
  5
16C
330
2
100
AcDbSymbolTableRecord
100
AcDbLayerTableRecord
  2
Layer252
 70
     0
 62
     7
  6
Continuous
370
    -3
390
F
  0
LAYER
  5
16D
330
2
100
AcDbSymbolTableRecord
100
AcDbLayerTableRecord
  2
Layer253
 70
     0
 62
     7
  6
Continuous
370
    -3
390
F
  0
LAYER
  5
16E
330
2
100
AcDbSymbolTableRecord
100
AcDbLayerTableRecord
  2
Layer254
 70
     0
 62
     7
  6
Continuous
370
    -3
390
F
  0
LAYER
  5
16F
330
2
100
AcDbSymbolTableRecord
100
AcDbLayerTableRecord
  2
Layer255
 70
     0
 62
     7
  6
Continuous
370
    -3
390
F
  0
ENDTAB
  0
TABLE
  2
STYLE
  5
3
330
0
100
AcDbSymbolTable
 70
     5
  0
STYLE
  5
11
330
3
100
AcDbSymbolTableRecord
100
AcDbTextStyleTableRecord
  2
Standard
 70
     0
 40
0.0
 41
1.0
 50
0.0
 71
     0
 42
2.5
  3
txt
  4

  0
STYLE
  5
6C
330
3
100
AcDbSymbolTableRecord
100
AcDbTextStyleTableRecord
  2
Arial
 70
     0
 40
0.0
 41
1.0
 50
0.0
 71
     0
 42
2.5
  3
arial.ttf
  4

1001
ACAD
1000
Arial
1071
       34
  0
STYLE
  5
6D
330
3
100
AcDbSymbolTableRecord
100
AcDbTextStyleTableRecord
  2
Lucida Calligraphy
 70
     0
 40
0.0
 41
1.0
 50
0.0
 71
     0
 42
2.5
  3
arial.ttf
  4

1001
ACAD
1000
Arial
1071
       66
  0
STYLE
  5
6E
330
3
100
AcDbSymbolTableRecord
100
AcDbTextStyleTableRecord
  2
Brush Script MT
 70
     0
 40
0.0
 41
1.0
 50
0.0
 71
     0
 42
2.5
  3

  4

1001
ACAD
1000
Arial
1071
       66
  0
STYLE
  5
6F
330
3
100
AcDbSymbolTableRecord
100
AcDbTextStyleTableRecord
  2
Toleranzfont
 70
     0
 40
0.0
 41
1.0
 50
0.0
 71
     0
 42
2.5
  3
IGES1003.SHX
  4

  0
ENDTAB
  0
TABLE
  2
VIEW
  5
6
330
0
100
AcDbSymbolTable
 70
     0
  0
ENDTAB
  0
TABLE
  2
UCS
  5
7
330
0
100
AcDbSymbolTable
 70
     0
  0
ENDTAB
  0
TABLE
  2
APPID
  5
9
330
0
100
AcDbSymbolTable
 70
     1
  0
APPID
  5
12
330
9
100
AcDbSymbolTableRecord
100
AcDbRegAppTableRecord
  2
ACAD
 70
     0
  0
ENDTAB
  0
TABLE
  2
DIMSTYLE
  5
A
330
0
100
AcDbSymbolTable
 70
     1
100
AcDbDimStyleTable
  0
DIMSTYLE
105
27
330
A
100
AcDbSymbolTableRecord
100
AcDbDimStyleTableRecord
  2
ISO-25
 70
     0
 41
2.5
 42
0.625
 43
3.75
 44
1.25
 73
     0
 74
     0
 77
     1
 78
     8
140
2.5
141
2.5
143
0.03937007874
147
0.625
171
     3
172
     1
178
     0
271
     2
272
     2
274
     3
278
    44
283
     0
284
     8
340
11
  0
ENDTAB
  0
TABLE
  2
BLOCK_RECORD
  5
1
330
0
100
AcDbSymbolTable
 70
    12
  0
BLOCK_RECORD
  5
1F
330
1
100
AcDbSymbolTableRecord
100
AcDbBlockTableRecord
  2
*Model_Space
340
22
  0
BLOCK_RECORD
  5
1B
330
1
100
AcDbSymbolTableRecord
100
AcDbBlockTableRecord
  2
*Paper_Space
340
1E
  0
BLOCK_RECORD
  5
23
330
1
100
AcDbSymbolTableRecord
100
AcDbBlockTableRecord
  2
*Paper_Space0
340
26
  0
BLOCK_RECORD
  5
170
330
1
100
AcDbSymbolTableRecord
100
AcDbBlockTableRecord
  2
Inch
340
0
102
{BLKREFS
331
2FA
102
}
  0
BLOCK_RECORD
  5
1BA
330
1
100
AcDbSymbolTableRecord
100
AcDbBlockTableRecord
  2
DimBlk_nNn01
340
0
102
{BLKREFS
331
1C4
102
}
  0
BLOCK_RECORD
  5
1C5
330
1
100
AcDbSymbolTableRecord
100
AcDbBlockTableRecord
  2
DimBlk_nNn02
340
0
102
{BLKREFS
331
1CF
102
}
  0
BLOCK_RECORD
  5
1D0
330
1
100
AcDbSymbolTableRecord
100
AcDbBlockTableRecord
  2
DimBlk_nNn03
340
0
102
{BLKREFS
331
1DA
102
}
  0
BLOCK_RECORD
  5
1DB
330
1
100
AcDbSymbolTableRecord
100
AcDbBlockTableRecord
  2
DimBlk_nNn04
340
0
102
{BLKREFS
331
1E6
102
}
  0
BLOCK_RECORD
  5
1E7
330
1
100
AcDbSymbolTableRecord
100
AcDbBlockTableRecord
  2
DimBlk_nNn05
340
0
102
{BLKREFS
331
1F1
102
}
  0
BLOCK_RECORD
  5
1F2
330
1
100
AcDbSymbolTableRecord
100
AcDbBlockTableRecord
  2
DimBlk_nNn06
340
0
102
{BLKREFS
331
200
102
}
  0
BLOCK_RECORD
  5
206
330
1
100
AcDbSymbolTableRecord
100
AcDbBlockTableRecord
  2
DimBlk_nNn07
340
0
102
{BLKREFS
331
210
102
}
  0
BLOCK_RECORD
  5
211
330
1
100
AcDbSymbolTableRecord
100
AcDbBlockTableRecord
  2
DimBlk_nNn08
340
0
102
{BLKREFS
331
21B
102
}
  0
BLOCK_RECORD
  5
21C
330
1
100
AcDbSymbolTableRecord
100
AcDbBlockTableRecord
  2
DimBlk_nNn09
340
0
102
{BLKREFS
331
228
102
}
  0
BLOCK_RECORD
  5
2A0
330
1
100
AcDbSymbolTableRecord
100
AcDbBlockTableRecord
  2
*X11
340
0
102
{BLKREFS
331
2F8
102
}
  0
ENDTAB
  0
ENDSEC
  0
SECTION
  2
BLOCKS
  0
BLOCK
  5
20
330
1F
100
AcDbEntity
  8
0
100
AcDbBlockBegin
  2
*Model_Space
 70
     0
 10
0.0
 20
0.0
 30
0.0
  3
*Model_Space
  1
*Model_Space
  0
ENDBLK
  5
21
330
1F
100
AcDbEntity
  8
0
100
AcDbBlockEnd
  0
BLOCK
  5
1C
330
1B
100
AcDbEntity
 67
     1
  8
0
100
AcDbBlockBegin
  2
*Paper_Space
 70
     0
 10
0.0
 20
0.0
 30
0.0
  3
*Paper_Space
  1
*Paper_Space
  0
ENDBLK
  5
1D
330
1B
100
AcDbEntity
 67
     1
  8
0
100
AcDbBlockEnd
  0
BLOCK
  5
24
330
23
100
AcDbEntity
  8
0
100
AcDbBlockBegin
  2
*Paper_Space0
 70
     0
 10
0.0
 20
0.0
 30
0.0
  3
*Paper_Space0
  1
*Paper_Space0
  0
ENDBLK
  5
25
330
23
100
AcDbEntity
  8
0
100
AcDbBlockEnd
  0
BLOCK
  5
171
330
170
100
AcDbEntity
  8
0
100
AcDbBlockBegin
  2
Inch
 70
     0
 10
0.0
 20
0.0
 30
0.0
  3
Inch
  1
Inch
  0
LINE
  5
173
330
170
100
AcDbEntity
  8
PROFILE
  6
AUSGEZOGEN
 62
    16
420
  8388608
370
    18
100
AcDbLine
 10
259.346575832092
 20
188.899458167243
 30
0.0
 11
310.738739792805
 21
188.899458167243
 31
0.0
  0
LINE
  5
174
330
170
100
AcDbEntity
  8
PROFILE
  6
AUSGEZOGEN
 62
    16
420
  8388608
370
    18
100
AcDbLine
 10
335.546575832092
 20
173.024458167243
 30
0.0
 11
360.946575832092
 21
173.024458167243
 31
0.0
  0
LINE
  5
175
330
170
100
AcDbEntity
  8
PROFILE
  6
AUSGEZOGEN
 62
    16
420
  8388608
370
    18
100
AcDbLine
 10
259.346575832092
 20
173.024458167243
 30
0.0
 11
284.746575832091
 21
173.024458167243
 31
0.0
  0
LINE
  5
176
330
170
100
AcDbEntity
  8
PROFILE
  6
AUSGEZOGEN
 62
    16
420
  8388608
370
    18
100
AcDbLine
 10
360.946575832092
 20
180.203728110839
 30
0.0
 11
360.946575832092
 21
173.024458167243
 31
0.0
  0
LINE
  5
177
330
170
100
AcDbEntity
  8
PROFILE
  6
AUSGEZOGEN
 62
    16
420
  8388608
370
    18
100
AcDbLine
 10
259.346575832092
 20
188.899458167243
 30
0.0
 11
259.346575832092
 21
173.024458167243
 31
0.0
  0
LINE
  5
178
330
170
100
AcDbEntity
  8
PROFILE
  6
AUSGEZOGEN
 62
    16
420
  8388608
370
    18
100
AcDbLine
 10
354.239422162721
 20
184.481017182087
 30
0.0
 11
356.539017706505
 21
184.481017182087
 31
0.0
  0
LINE
  5
179
330
170
100
AcDbEntity
  8
PROFILE
  6
AUSGEZOGEN
 62
    16
420
  8388608
370
    18
100
AcDbLine
 10
345.041039987585
 20
184.481017182087
 30
0.0
 11
347.915534417315
 21
184.481017182087
 31
0.0
  0
LINE
  5
17A
330
170
100
AcDbEntity
  8
PROFILE
  6
AUSGEZOGEN
 62
    16
420
  8388608
370
    18
100
AcDbLine
 10
314.92549250342
 20
182.175743624615
 30
0.0
 11
317.997980332476
 21
182.175743624615
 31
0.0
  0
ARC
  5
17B
330
170
100
AcDbEntity
  8
PROFILE
  6
AUSGEZOGEN
 62
    16
420
  8388608
370
    18
100
AcDbCircle
 10
315.443059367539
 20
189.336374497453
 30
0.0
 40
4.72456543407263
100
AcDbArc
 50
185.30615599275
 51
262.121954715566
  0
LINE
  5
17C
330
170
100
AcDbEntity
  8
PROFILE
  6
AUSGEZOGEN
 62
    16
420
  8388608
370
    18
100
AcDbLine
 10
314.795486851264
 20
184.656399243565
 30
0.0
 11
314.92549250342
 21
182.175743624615
 31
0.0
  0
ARC
  5
17D
330
170
100
AcDbEntity
  8
PROFILE
  6
AUSGEZOGEN
 62
    16
420
  8388608
370
    18
100
AcDbCircle
 10
324.763276642386
 20
181.469792862764
 30
0.0
 40
6.80202915599714
100
AcDbArc
 50
52.825575693671
 51
174.042811923643
  0
ARC
  5
17E
330
170
100
AcDbEntity
  8
PROFILE
  6
AUSGEZOGEN
 62
    16
420
  8388608
370
    18
100
AcDbCircle
 10
339.712993397327
 20
185.470735908796
 30
0.0
 40
5.419190310918907
100
AcDbArc
 50
232.825575693671
 51
349.476883461095
  0
ARC
  5
17F
330
170
100
AcDbEntity
  8
PROFILE
  6
AUSGEZOGEN
 62
    16
420
  8388608
370
    18
100
AcDbCircle
 10
351.077478290018
 20
183.174156304355
 30
0.0
 40
3.421370252964806
100
AcDbArc
 50
22.455763977309
 51
157.544236022691
  0
ARC
  5
180
330
170
100
AcDbEntity
  8
PROFILE
  6
AUSGEZOGEN
 62
    16
420
  8388608
370
    18
100
AcDbCircle
 10
360.745132290879
 20
184.405691269844
 30
0.0
 40
4.206789023701447
100
AcDbArc
 50
178.974018546747
 51
272.744677744039
  0
LINE
  5
181
330
170
100
AcDbEntity
  8
PROFILE
  6
AUSGEZOGEN
 62
    16
420
  8388608
370
    18
100
AcDbLine
 10
328.873358543745
 20
186.889647787313
 30
0.0
 11
336.438482879051
 21
181.152726588327
 31
0.0
  0
LINE
  5
182
330
170
100
AcDbEntity
  8
PROFILE
  6
AUSGEZOGEN
 62
    16
420
  8388608
370
    18
100
AcDbLine
 10
286.321375832091
 20
174.599258167243
 30
0.0
 11
333.971775832092
 21
174.599258167243
 31
0.0
  0
LINE
  5
183
330
170
100
AcDbEntity
  8
PROFILE
  6
AUSGEZOGEN
 62
    16
420
  8388608
370
    18
100
AcDbLine
 10
333.971775832092
 20
174.599258167243
 30
0.0
 11
335.546575832092
 21
173.024458167243
 31
0.0
  0
LINE
  5
184
330
170
100
AcDbEntity
  8
PROFILE
  6
AUSGEZOGEN
 62
    16
420
  8388608
370
    18
100
AcDbLine
 10
286.321375832091
 20
174.599258167243
 30
0.0
 11
284.746575832091
 21
173.024458167243
 31
0.0
  0
LINE
  5
185
330
170
100
AcDbEntity
  8
PROFILE
  6
AUSGEZOGEN
 62
    16
420
  8388608
370
    18
100
AcDbLine
 10
266.417643643957
 20
195.970525979109
 30
0.0
 11
317.80980760467
 21
195.970525979109
 31
0.0
  0
LINE
  5
186
330
170
100
AcDbEntity
  8
PROFILE
  6
AUSGEZOGEN
 62
    16
420
  8388608
370
    18
100
AcDbLine
 10
368.017643643957
 20
187.274795922704
 30
0.0
 11
368.017643643957
 21
180.095525979109
 31
0.0
  0
LINE
  5
187
330
170
100
AcDbEntity
  8
PROFILE
  6
AUSGEZOGEN
 62
    16
420
  8388608
370
    18
100
AcDbLine
 10
361.310489974587
 20
191.552084993953
 30
0.0
 11
363.610085518371
 21
191.552084993953
 31
0.0
  0
LINE
  5
188
330
170
100
AcDbEntity
  8
PROFILE
  6
AUSGEZOGEN
 62
    16
420
  8388608
370
    18
100
AcDbLine
 10
352.11210779945
 20
191.552084993953
 30
0.0
 11
354.616858765973
 21
191.552084993953
 31
0.0
  0
LINE
  5
189
330
170
100
AcDbEntity
  8
PROFILE
  6
AUSGEZOGEN
 62
    16
420
  8388608
370
    18
100
AcDbLine
 10
321.996560315285
 20
189.24681143648
 30
0.0
 11
322.920773332035
 21
189.24681143648
 31
0.0
  0
ARC
  5
18A
330
170
100
AcDbEntity
  8
PROFILE
  6
AUSGEZOGEN
 62
    16
420
  8388608
370
    18
100
AcDbCircle
 10
322.514127179405
 20
196.407442309318
 30
0.0
 40
4.724565434072637
100
AcDbArc
 50
185.30615599275
 51
262.121954715566
  0
LINE
  5
18B
330
170
100
AcDbEntity
  8
PROFILE
  6
AUSGEZOGEN
 62
    16
420
  8388608
370
    18
100
AcDbLine
 10
321.86655466313
 20
191.727467055431
 30
0.0
 11
321.996560315285
 21
189.24681143648
 31
0.0
  0
ARC
  5
18C
330
170
100
AcDbEntity
  8
PROFILE
  6
AUSGEZOGEN
 62
    16
420
  8388608
370
    18
100
AcDbCircle
 10
331.834344454252
 20
188.540860674629
 30
0.0
 40
6.802029155997133
100
AcDbArc
 50
52.825575693671
 51
135.0
  0
ARC
  5
18D
330
170
100
AcDbEntity
  8
PROFILE
  6
AUSGEZOGEN
 62
    16
420
  8388608
370
    18
100
AcDbCircle
 10
346.784061209192
 20
192.541803720662
 30
0.0
 40
5.419190310918907
100
AcDbArc
 50
232.825575693671
 51
280.523116538906
  0
ARC
  5
18E
330
170
100
AcDbEntity
  8
PROFILE
  6
AUSGEZOGEN
 62
    16
420
  8388608
370
    18
100
AcDbCircle
 10
358.148546101883
 20
190.245224116221
 30
0.0
 40
3.421370252964806
100
AcDbArc
 50
22.455763977309
 51
135.0
  0
ARC
  5
18F
330
170
100
AcDbEntity
  8
PROFILE
  6
AUSGEZOGEN
 62
    16
420
  8388608
370
    18
100
AcDbCircle
 10
367.816200102744
 20
191.47675908171
 30
0.0
 40
4.206789023701447
100
AcDbArc
 50
178.974018546747
 51
272.744677744039
  0
LINE
  5
190
330
170
100
AcDbEntity
  8
PROFILE
  6
AUSGEZOGEN
 62
    16
420
  8388608
370
    18
100
AcDbLine
 10
335.94442635561
 20
193.960715599178
 30
0.0
 11
343.509550690917
 21
188.223794400192
 31
0.0
  0
LINE
  5
191
330
170
100
AcDbEntity
  8
PROFILE
  6
AUSGEZOGEN
 62
    16
420
  8388608
370
    18
100
AcDbLine
 10
266.417643643957
 20
195.970525979109
 30
0.0
 11
259.346575832092
 21
188.899458167243
 31
0.0
  0
LINE
  5
192
330
170
100
AcDbEntity
  8
PROFILE
  6
AUSGEZOGEN
 62
    16
420
  8388608
370
    18
100
AcDbLine
 10
317.80980760467
 20
195.970525979109
 30
0.0
 11
310.738739792805
 21
188.899458167243
 31
0.0
  0
LINE
  5
193
330
170
100
AcDbEntity
  8
PROFILE
  6
AUSGEZOGEN
 62
    16
420
  8388608
370
    18
100
AcDbLine
 10
321.86655466313
 20
191.727467055431
 30
0.0
 11
314.795486851264
 21
184.656399243565
 31
0.0
  0
LINE
  5
194
330
170
100
AcDbEntity
  8
PROFILE
  6
AUSGEZOGEN
 62
    16
420
  8388608
370
    18
100
AcDbLine
 10
321.996560315285
 20
189.24681143648
 30
0.0
 11
314.92549250342
 21
182.175743624615
 31
0.0
  0
LINE
  5
195
330
170
100
AcDbEntity
  8
PROFILE
  6
AUSGEZOGEN
 62
    16
420
  8388608
370
    18
100
AcDbLine
 10
352.11210779945
 20
191.552084993953
 30
0.0
 11
345.041039987585
 21
184.481017182087
 31
0.0
  0
LINE
  5
196
330
170
100
AcDbEntity
  8
PROFILE
  6
AUSGEZOGEN
 62
    16
420
  8388608
370
    18
100
AcDbLine
 10
354.239422162721
 20
184.481017182087
 30
0.0
 11
361.310489974587
 21
191.552084993953
 31
0.0
  0
LINE
  5
197
330
170
100
AcDbEntity
  8
PROFILE
  6
AUSGEZOGEN
 62
    16
420
  8388608
370
    18
100
AcDbLine
 10
363.610085518371
 20
191.552084993953
 30
0.0
 11
356.539017706505
 21
184.481017182087
 31
0.0
  0
LINE
  5
198
330
170
100
AcDbEntity
  8
PROFILE
  6
AUSGEZOGEN
 62
    16
420
  8388608
370
    18
100
AcDbLine
 10
368.017643643957
 20
187.274795922704
 30
0.0
 11
360.946575832092
 21
180.203728110839
 31
0.0
  0
LINE
  5
199
330
170
100
AcDbEntity
  8
PROFILE
  6
AUSGEZOGEN
 62
    16
420
  8388608
370
    18
100
AcDbLine
 10
368.017643643957
 20
180.095525979109
 30
0.0
 11
360.946575832092
 21
173.024458167243
 31
0.0
  0
LINE
  5
19A
330
170
100
AcDbEntity
  8
PROFILE
  6
AUSGEZOGEN
 62
    16
420
  8388608
370
    18
100
AcDbLine
 10
348.658204183197
 20
185.593430411176
 30
0.0
 11
355.729271995062
 21
192.664498223042
 31
0.0
  0
LINE
  5
19B
330
170
100
AcDbEntity
  8
PROFILE
  6
AUSGEZOGEN
 62
    16
420
  8388608
370
    18
100
AcDbLine
 10
327.024583512217
 20
193.350621616663
 30
0.0
 11
319.953515700352
 21
186.279553804798
 31
0.0
  0
TEXT
  5
19C
330
170
100
AcDbEntity
  8
PROFILE
  6
AUSGEZOGEN
 62
    16
420
  8388608
370
    18
100
AcDbText
 10
258.815044852263
 20
167.834623651166
 30
0.0
 40
3.5
  1
5/8" X 4"
 41
1.430470931186
  7
Arial
 72
     5
 11
285.926045175559
 21
167.834623651166
 31
0.0
100
AcDbText
  0
TEXT
  5
19D
330
170
100
AcDbEntity
  8
PROFILE
  6
AUSGEZOGEN
 62
    16
420
  8388608
370
    18
100
AcDbText
 10
307.421440167637
 20
167.821264646079
 30
0.0
 40
3.5
  1
BASE 4.000" - 23
 41
1.410906103887
  7
Arial
 72
     5
 11
361.212940831394
 21
167.821264646079
 31
0.0
100
AcDbText
  0
LINE
  5
19E
330
170
100
AcDbEntity
  8
PROFILE
  6
AUSGEZOGEN
 62
     3
420
    65280
370
    18
100
AcDbLine
 10
241.23761088541
 20
107.108032527077
 30
0.0
 11
312.619574846123
 21
107.108032527077
 31
0.0
  0
LINE
  5
19F
330
170
100
AcDbEntity
  8
PROFILE
  6
AUSGEZOGEN
 62
     7
420
 16777215
370
    18
100
AcDbLine
 10
338.253187705177
 20
122.983032527077
 30
0.0
 11
362.82741088541
 21
122.983032527077
 31
0.0
  0
LINE
  5
1A0
330
170
100
AcDbEntity
  8
PROFILE
  6
AUSGEZOGEN
 62
     7
420
 16777215
370
    18
100
AcDbLine
 10
261.22741088541
 20
122.983032527077
 30
0.0
 11
281.251168161829
 21
122.983032527077
 31
0.0
  0
LINE
  5
1A1
330
170
100
AcDbEntity
  8
PROFILE
  6
AUSGEZOGEN
 62
     7
420
 16777215
370
    18
100
AcDbLine
 10
362.82741088541
 20
115.803762583481
 30
0.0
 11
362.82741088541
 21
122.983032527077
 31
0.0
  0
LINE
  5
1A2
330
170
100
AcDbEntity
  8
PROFILE
  6
AUSGEZOGEN
 62
     3
420
    65280
370
    18
100
AcDbLine
 10
362.82741088541
 20
81.70745247472
 30
0.0
 11
362.82741088541
 21
95.925927395114
 31
0.0
  0
LINE
  5
1A3
330
170
100
AcDbEntity
  8
PROFILE
  6
AUSGEZOGEN
 62
     7
420
 16777215
370
    18
100
AcDbLine
 10
261.22741088541
 20
107.108032527077
 30
0.0
 11
261.22741088541
 21
122.983032527077
 31
0.0
  0
LINE
  5
1A4
330
170
100
AcDbEntity
  8
PROFILE
  6
AUSGEZOGEN
 62
     3
420
    65280
370
    18
100
AcDbLine
 10
356.120257216039
 20
111.526473512232
 30
0.0
 11
358.419852759824
 21
111.526473512232
 31
0.0
  0
LINE
  5
1A5
330
170
100
AcDbEntity
  8
PROFILE
  6
AUSGEZOGEN
 62
     3
420
    65280
370
    18
100
AcDbLine
 10
346.921875040903
 20
111.526473512232
 30
0.0
 11
349.796369470633
 21
111.526473512232
 31
0.0
  0
LINE
  5
1A6
330
170
100
AcDbEntity
  8
PROFILE
  6
AUSGEZOGEN
 62
     3
420
    65280
370
    18
100
AcDbLine
 10
316.806327556738
 20
113.831747069705
 30
0.0
 11
319.878815385795
 21
113.831747069705
 31
0.0
  0
ARC
  5
1A7
330
170
100
AcDbEntity
  8
PROFILE
  6
AUSGEZOGEN
 62
     3
420
    65280
370
    18
100
AcDbCircle
 10
317.323894420857
 20
106.671116196867
 30
0.0
 40
4.724565434072636
100
AcDbArc
 50
97.878045284434
 51
174.69384400725
  0
LINE
  5
1A8
330
170
100
AcDbEntity
  8
PROFILE
  6
AUSGEZOGEN
 62
     3
420
    65280
370
    18
100
AcDbLine
 10
316.676321904583
 20
111.351091450755
 30
0.0
 11
316.806327556738
 21
113.831747069705
 31
0.0
  0
ARC
  5
1A9
330
170
100
AcDbEntity
  8
PROFILE
  6
AUSGEZOGEN
 62
     3
420
    65280
370
    18
100
AcDbCircle
 10
326.644111695704
 20
114.537697831556
 30
0.0
 40
6.802029155997121
100
AcDbArc
 50
185.957188076357
 51
307.174424306329
  0
ARC
  5
1AA
330
170
100
AcDbEntity
  8
PROFILE
  6
AUSGEZOGEN
 62
     3
420
    65280
370
    18
100
AcDbCircle
 10
341.593828450645
 20
110.536754785524
 30
0.0
 40
5.419190310918916
100
AcDbArc
 50
10.523116538905
 51
127.174424306329
  0
ARC
  5
1AB
330
170
100
AcDbEntity
  8
PROFILE
  6
AUSGEZOGEN
 62
     3
420
    65280
370
    18
100
AcDbCircle
 10
352.958313343336
 20
112.833334389965
 30
0.0
 40
3.4213702529648
100
AcDbArc
 50
202.455763977309
 51
337.544236022691
  0
ARC
  5
1AC
330
170
100
AcDbEntity
  8
PROFILE
  6
AUSGEZOGEN
 62
     3
420
    65280
370
    18
100
AcDbCircle
 10
362.625967344197
 20
111.601799424476
 30
0.0
 40
4.206789023701447
100
AcDbArc
 50
90.0
 51
181.025981453253
  0
LINE
  5
1AD
330
170
100
AcDbEntity
  8
PROFILE
  6
AUSGEZOGEN
 62
     3
420
    65280
370
    18
100
AcDbLine
 10
330.754193597063
 20
109.117842907007
 30
0.0
 11
338.31931793237
 21
114.854764105993
 31
0.0
  0
LINE
  5
1AE
330
170
100
AcDbEntity
  8
PROFILE
  6
AUSGEZOGEN
 62
     7
420
 16777215
370
    18
100
AcDbLine
 10
282.825968161829
 20
121.408232527077
 30
0.0
 11
336.678387705177
 21
121.408232527077
 31
0.0
  0
LINE
  5
1AF
330
170
100
AcDbEntity
  8
PROFILE
  6
AUSGEZOGEN
 62
     7
420
 16777215
370
    18
100
AcDbLine
 10
336.678387705177
 20
121.408232527077
 30
0.0
 11
338.253187705177
 21
122.983032527077
 31
0.0
  0
LINE
  5
1B0
330
170
100
AcDbEntity
  8
PROFILE
  6
AUSGEZOGEN
 62
     7
420
 16777215
370
    18
100
AcDbLine
 10
282.825968161829
 20
121.408232527077
 30
0.0
 11
281.251168161829
 21
122.983032527077
 31
0.0
  0
LINE
  5
1B1
330
170
100
AcDbEntity
  8
PROFILE
  6
AUSGEZOGEN
 62
     3
420
    65280
370
    18
100
AcDbLine
 10
382.81721088541
 20
47.113232527077
 30
0.0
 11
382.81721088541
 21
115.808588448177
 31
0.0
  0
LINE
  5
1B2
330
170
100
AcDbEntity
  8
PROFILE
  6
AUSGEZOGEN
 62
     3
420
    65280
370
    18
100
AcDbLine
 10
241.23761088541
 20
47.113232527077
 30
0.0
 11
241.23761088541
 21
107.108032527077
 31
0.0
  0
LINE
  5
1B3
330
170
100
AcDbEntity
  8
PROFILE
  6
AUSGEZOGEN
 62
     3
420
    65280
370
    18
100
AcDbLine
 10
241.23761088541
 20
47.113232527077
 30
0.0
 11
382.81721088541
 21
47.113232527077
 31
0.0
  0
WIPEOUT
  5
1B4
330
170
100
AcDbEntity
  8
PROFILE
  6
AUSGEZOGEN
 62
     7
420
 16777215
370
    18
 92
      308
310
34010000070000000C0000000E000000120000000C00000016000000000000C20C00000014000000010000006C0000000700000004000000A4C0FBAA00017040DC975CF81ADB434000000000000000000A2732A67F077740DC975CF81ADB434000000000000000000A2732A67F077740A96429C5E7A7464000000000000000
310
00A4C0FBAA00017040A96429C5E7A7464000000000000000000C0000000E000000070000000C00000016000000FFFFFFC2840000000600000005000000A4C0FBAA00017040DC975CF81ADB434000000000000000000A2732A67F077740DC975CF81ADB434000000000000000000A2732A67F077740A96429C5E7A746400000
310
000000000000A4C0FBAA00017040A96429C5E7A746400000000000000000A4C0FBAA00017040DC975CF81ADB43400000000000000000
100
AcDbWipeout
 90
        0
 10
256.062663062485
 20
39.711760564052
 30
0.0
 11
112.4060012936592
 21
0.0
 31
0.0
 12
0.0
 22
112.4060012936592
 32
0.0
 13
1.0
 23
1.0
340
0
 70
     7
280
     1
281
    50
282
    50
283
     0
360
0
 71
     2
 91
        5
 14
-0.5
 24
0.5
 14
0.5
 24
0.5
 14
0.5
 24
0.450180595915
 14
-0.5
 24
0.450180595915
 14
-0.5
 24
0.5
  0
TEXT
  5
1B5
330
170
100
AcDbEntity
  8
PROFILE
  6
AUSGEZOGEN
 62
     7
420
 16777215
370
    18
100
AcDbText
 10
256.062663062485
 20
40.761760564052
 30
0.0
 40
3.5
  1
Cut steel size @ 4.750"l  x  2.000"w
 41
1.452227011965
  7
Arial
 72
     5
 11
368.468664356144
 21
40.761760564052
 31
0.0
100
AcDbText
  0
WIPEOUT
  5
1B6
330
170
100
AcDbEntity
  8
PROFILE
  6
AUSGEZOGEN
 62
     3
420
    65280
370
    18
 92
      308
310
34010000070000000C0000000E000000120000000C00000016000000000000C20C00000014000000010000006C000000070000000400000034F7744FD3637740520C4B2F2ACF484000000000000000009A5DFBE2EB997740520C4B2F2ACF484000000000000000009A5DFBE2EB9977401ED917FCF69B4B4000000000000000
310
0034F7744FD36377401ED917FCF69B4B4000000000000000000C0000000E000000030000000C0000001600000000FF00C284000000060000000500000034F7744FD3637740520C4B2F2ACF484000000000000000009A5DFBE2EB997740520C4B2F2ACF484000000000000000009A5DFBE2EB9977401ED917FCF69B4B400000
310
00000000000034F7744FD36377401ED917FCF69B4B40000000000000000034F7744FD3637740520C4B2F2ACF48400000000000000000
100
AcDbWipeout
 90
        0
 10
374.239089447877
 20
49.618474876065
 30
0.0
 11
5.600000000000001
 21
0.0
 31
0.0
 12
0.0
 22
5.600000000000001
 32
0.0
 13
1.0
 23
1.0
340
0
 70
     7
280
     1
281
    50
282
    50
283
     0
360
0
 71
     2
 91
        5
 14
-0.5
 24
0.5
 14
0.103750011751
 24
0.5
 14
0.103750011751
 24
-0.5
 14
-0.5
 24
-0.5
 14
-0.5
 24
0.5
  0
TEXT
  5
1B7
330
170
100
AcDbEntity
  8
PROFILE
  6
AUSGEZOGEN
 62
     3
420
    65280
370
    18
100
AcDbText
 10
374.239089447877
 20
50.668474876065
 30
0.0
 40
3.5
  1
T
 41
1.13247364455
  7
Arial
 72
     5
 11
377.62008951368
 21
50.668474876065
 31
0.0
100
AcDbText
  0
WIPEOUT
  5
1B8
330
170
100
AcDbEntity
  8
PROFILE
  6
AUSGEZOGEN
 62
     3
420
    65280
370
    18
 92
      308
310
34010000070000000C0000000E000000120000000C00000016000000000000C20C00000014000000010000006C00000007000000040000001C0F1CE919E2714023A64ABABF4E54400000000000000000B6A8B5E5C33E754023A64ABABF4E54400000000000000000B6A8B5E5C33E7540890CB12026B5554000000000000000
310
001C0F1CE919E27140890CB12026B5554000000000000000000C0000000E000000030000000C0000001600000000FF00C28400000006000000050000001C0F1CE919E2714023A64ABABF4E54400000000000000000B6A8B5E5C33E754023A64ABABF4E54400000000000000000B6A8B5E5C33E7540890CB12026B555400000
310
0000000000001C0F1CE919E27140890CB12026B5554000000000000000001C0F1CE919E2714023A64ABABF4E54400000000000000000
100
AcDbWipeout
 90
        0
 10
286.131325826269
 20
81.230452130222
 30
0.0
 11
53.79150066375735
 21
0.0
 31
0.0
 12
0.0
 22
53.79150066375735
 32
0.0
 13
1.0
 23
1.0
340
0
 70
     7
280
     1
281
    50
282
    50
283
     0
360
0
 71
     2
 91
        5
 14
-0.5
 24
0.5
 14
0.5
 24
0.5
 14
0.5
 24
0.395894334032
 14
-0.5
 24
0.395894334032
 14
-0.5
 24
0.5
  0
TEXT
  5
1B9
330
170
100
AcDbEntity
  8
PROFILE
  6
AUSGEZOGEN
 62
     3
420
    65280
370
    18
100
AcDbText
 10
286.131325826269
 20
82.280452130222
 30
0.0
 40
3.5
  1
BASE 4.000" - 23
 41
1.410906103887
  7
Arial
 72
     5
 11
339.922826490026
 21
82.280452130222
 31
0.0
100
AcDbText
  0
INSERT
  5
1C4
330
170
100
AcDbEntity
  8
0
100
AcDbBlockReference
  2
DimBlk_nNn01
 10
0.0
 20
0.0
 30
0.0
  0
INSERT
  5
1CF
330
170
100
AcDbEntity
  8
0
100
AcDbBlockReference
  2
DimBlk_nNn02
 10
0.0
 20
0.0
 30
0.0
  0
INSERT
  5
1DA
330
170
100
AcDbEntity
  8
0
100
AcDbBlockReference
  2
DimBlk_nNn03
 10
0.0
 20
0.0
 30
0.0
  0
INSERT
  5
1E6
330
170
100
AcDbEntity
  8
0
100
AcDbBlockReference
  2
DimBlk_nNn04
 10
0.0
 20
0.0
 30
0.0
  0
INSERT
  5
1F1
330
170
100
AcDbEntity
  8
0
100
AcDbBlockReference
  2
DimBlk_nNn05
 10
0.0
 20
0.0
 30
0.0
  0
INSERT
  5
200
330
170
100
AcDbEntity
  8
0
100
AcDbBlockReference
  2
DimBlk_nNn06
 10
0.0
 20
0.0
 30
0.0
  0
WIPEOUT
  5
201
330
170
100
AcDbEntity
  8
PROFILE
  6
AUSGEZOGEN
 62
     1
420
 16711680
370
    18
 92
      308
310
34010000070000000C0000000E000000120000000C00000016000000000000C20C00000014000000010000006C0000000700000004000000A2E496FD779072408802CD057DCB2E4000000000000000003C7E30FA21ED75408802CD057DCB2E4000000000000000003C7E30FA21ED7540DE1A801C58FF344000000000000000
310
00A2E496FD77907240DE1A801C58FF344000000000000000000C0000000E000000010000000C000000160000000000FFC2840000000600000005000000A2E496FD779072408802CD057DCB2E4000000000000000003C7E30FA21ED75408802CD057DCB2E4000000000000000003C7E30FA21ED7540DE1A801C58FF34400000
310
000000000000A2E496FD77907240DE1A801C58FF34400000000000000000A2E496FD779072408802CD057DCB2E400000000000000000
100
AcDbWipeout
 90
        0
 10
297.029294576098
 20
15.397438222194
 30
0.0
 11
53.79150066375735
 21
0.0
 31
0.0
 12
0.0
 22
53.79150066375735
 32
0.0
 13
1.0
 23
1.0
340
0
 70
     7
280
     1
281
    50
282
    50
283
     0
360
0
 71
     2
 91
        5
 14
-0.5
 24
0.5
 14
0.5
 24
0.5
 14
0.5
 24
0.395894334032
 14
-0.5
 24
0.395894334032
 14
-0.5
 24
0.5
  0
TEXT
  5
202
330
170
100
AcDbEntity
  8
PROFILE
  6
AUSGEZOGEN
 62
     1
420
 16711680
370
    18
100
AcDbText
 10
297.029294576098
 20
16.447438222194
 30
0.0
 40
3.5
  1
BASE 4.000" - 23
 41
1.410906103887
  7
Arial
 72
     5
 11
350.820795239855
 21
16.447438222194
 31
0.0
100
AcDbText
  0
WIPEOUT
  5
203
330
170
100
AcDbEntity
  8
PROFILE
  6
AUSGEZOGEN
 62
     1
420
 16711680
370
    18
 92
      308
310
34010000070000000C0000000E000000120000000C00000016000000000000C20C00000014000000010000006C0000000700000004000000AE4B6DF0C163774070099160E8BB2E40000000000000000014B2635B7E8E794070099160E8BB2E40000000000000000014B2635B7E8E7940521EE2C98DF7344000000000000000
310
00AE4B6DF0C1637740521EE2C98DF7344000000000000000000C0000000E000000010000000C000000160000000000FFC2840000000600000005000000AE4B6DF0C163774070099160E8BB2E40000000000000000014B2635B7E8E794070099160E8BB2E40000000000000000014B2635B7E8E7940521EE2C98DF734400000
310
000000000000AE4B6DF0C1637740521EE2C98DF734400000000000000000AE4B6DF0C163774070099160E8BB2E400000000000000000
100
AcDbWipeout
 90
        0
 10
374.234848429619
 20
15.367007272439
 30
0.0
 11
34.67100044488905
 21
0.0
 31
0.0
 12
0.0
 22
34.67100044488905
 32
0.0
 13
1.0
 23
1.0
340
0
 70
     7
280
     1
281
    50
282
    50
283
     0
360
0
 71
     2
 91
        5
 14
-0.5
 24
0.5
 14
0.5
 24
0.5
 14
0.5
 24
0.338481730318
 14
-0.5
 24
0.338481730318
 14
-0.5
 24
0.5
  0
TEXT
  5
204
330
170
100
AcDbEntity
  8
PROFILE
  6
AUSGEZOGEN
 62
     1
420
 16711680
370
    18
100
AcDbText
 10
374.234848429619
 20
16.417007272439
 30
0.0
 40
3.5
  1
12-15-2014
 41
1.387783710719
  7
Arial
 72
     5
 11
408.905848874508
 21
16.417007272439
 31
0.0
100
AcDbText
  0
LINE
  5
205
330
170
100
AcDbEntity
  8
PROFILE
  6
AUSGEZOGEN
 62
     3
420
    65280
370
    18
100
AcDbLine
 10
382.81721088541
 20
115.808588448177
 30
0.0
 11
362.625967344197
 21
115.808588448177
 31
0.0
  0
INSERT
  5
210
330
170
100
AcDbEntity
  8
0
100
AcDbBlockReference
  2
DimBlk_nNn07
 10
0.0
 20
0.0
 30
0.0
  0
INSERT
  5
21B
330
170
100
AcDbEntity
  8
0
100
AcDbBlockReference
  2
DimBlk_nNn08
 10
0.0
 20
0.0
 30
0.0
  0
INSERT
  5
228
330
170
100
AcDbEntity
  8
0
100
AcDbBlockReference
  2
DimBlk_nNn09
 10
0.0
 20
0.0
 30
0.0
  0
LINE
  5
229
330
170
100
AcDbEntity
  8
PROFILE
  6
AUSGEZOGEN
 62
     5
420
      255
370
    18
100
AcDbLine
 10
211.582009582371
 20
25.773413309135
 30
0.0
 11
412.750009582371
 21
25.773413309135
 31
0.0
  0
LINE
  5
22A
330
170
100
AcDbEntity
  8
PROFILE
  6
AUSGEZOGEN
 62
     5
420
      255
370
    18
100
AcDbLine
 10
211.582009582371
 20
14.577352326713
 30
0.0
 11
412.750009582371
 21
14.577352326713
 31
0.0
  0
LINE
  5
22B
330
170
100
AcDbEntity
  8
PROFILE
  6
AUSGEZOGEN
 62
     5
420
      255
370
    18
100
AcDbLine
 10
412.750009582371
 20
2.529308395211
 30
0.0
 11
211.582009582371
 21
2.529308395211
 31
0.0
  0
TEXT
  5
22C
330
170
100
AcDbEntity
  8
PROFILE
  6
AUSGEZOGEN
 62
     7
420
 16777215
370
    18
100
AcDbText
 10
214.080997384745
 20
27.413998772645
 30
0.0
 40
3.5
  1
KNIFE GRIND NEEDED ?
 41
1.427091498526
  7
Lucida Calligraphy
 72
     5
 11
295.826225511803
 21
27.413998772645
 31
0.0
100
AcDbText
  0
TEXT
  5
22D
330
170
100
AcDbEntity
  8
PROFILE
  6
AUSGEZOGEN
 62
     5
420
      255
370
    18
100
AcDbText
 10
212.165202815803
 20
4.505576619413
 30
0.0
 40
3.5
  1
Circle one
 41
0.902435142448
  7
Lucida Calligraphy
 72
     5
 11
232.010202815803
 21
4.505576619413
 31
0.0
100
AcDbText
  0
TEXT
  5
22E
330
170
100
AcDbEntity
  8
PROFILE
  6
AUSGEZOGEN
 62
     5
420
      255
370
    18
100
AcDbText
 10
212.627124617806
 20
9.268537149955
 30
0.0
 40
3.5
  1
Ship via
 41
1.088691690241
  7
Lucida Calligraphy
 72
     5
 11
231.545864464975
 21
9.268537149955
 31
0.0
100
AcDbText
  0
TEXT
  5
22F
330
170
100
AcDbEntity
  8
PROFILE
  6
AUSGEZOGEN
 62
     5
420
      255
370
    18
100
AcDbText
 10
339.202744921567
 20
6.654911099893
 30
0.0
 40
3.880555555556
  1
UPS -
 41
0.889874060598
  7
Lucida Calligraphy
 72
     5
 11
352.059029852858
 21
6.654911099893
 31
0.0
100
AcDbText
  0
TEXT
  5
230
330
170
100
AcDbEntity
  8
PROFILE
  6
AUSGEZOGEN
 62
     7
420
 16777215
370
    18
100
AcDbText
 10
319.679997179508
 20
6.70144147349
 30
0.0
 40
3.55825947599
  1
2 Day
 41
0.931746313857
  7
Lucida Calligraphy
 72
     5
 11
331.767927898235
 21
6.70144147349
 31
0.0
100
AcDbText
  0
TEXT
  5
231
330
170
100
AcDbEntity
  8
PROFILE
  6
AUSGEZOGEN
 62
     7
420
 16777215
370
    18
100
AcDbText
 10
292.901799425338
 20
9.022612294912
 30
0.0
 40
2.469444444444
  1
Standard
 41
1.361935045736
  7
Lucida Calligraphy
 72
     5
 11
311.951094114371
 21
9.022612294912
 31
0.0
100
AcDbText
  0
TEXT
  5
232
330
170
100
AcDbEntity
  8
PROFILE
  6
AUSGEZOGEN
 62
     7
420
 16777215
370
    18
100
AcDbText
 10
292.901799425338
 20
5.071501124925
 30
0.0
 40
2.469444444444
  1
Overnight
 41
1.39695919784
  7
Lucida Calligraphy
 72
     5
 11
313.77601357631
 21
5.071501124925
 31
0.0
100
AcDbText
  0
TEXT
  5
233
330
170
100
AcDbEntity
  8
PROFILE
  6
AUSGEZOGEN
 62
     7
420
 16777215
370
    18
100
AcDbText
 10
265.979088505517
 20
9.087225898099
 30
0.0
 40
2.469444444444
  1
Priority
 41
1.595671214319
  7
Lucida Calligraphy
 72
     5
 11
283.092338712425
 21
9.087225898099
 31
0.0
100
AcDbText
  0
TEXT
  5
234
330
170
100
AcDbEntity
  8
PROFILE
  6
AUSGEZOGEN
 62
     7
420
 16777215
370
    18
100
AcDbText
 10
265.979088505517
 20
5.136114728111
 30
0.0
 40
2.469444444444
  1
Overnight
 41
1.39695919784
  7
Lucida Calligraphy
 72
     5
 11
286.853302656489
 21
5.136114728111
 31
0.0
100
AcDbText
  0
TEXT
  5
235
330
170
100
AcDbEntity
  8
PROFILE
  6
AUSGEZOGEN
 62
     5
420
      255
370
    18
100
AcDbText
 10
240.110546025527
 20
6.61205591541
 30
0.0
 40
3.880555555556
  1
FEDEX -
 41
0.870751925974
  7
Lucida Calligraphy
 72
     5
 11
258.718705765264
 21
6.61205591541
 31
0.0
100
AcDbText
  0
TEXT
  5
236
330
170
100
AcDbEntity
  8
PROFILE
  6
AUSGEZOGEN
 62
     7
420
 16777215
370
    18
100
AcDbText
 10
357.706971091044
 20
6.934743231552
 30
0.0
 40
3.175
  1
Red  Blue  Ground
 41
1.345588251381
  7
Lucida Calligraphy
 72
     5
 11
407.094096681488
 21
6.934743231552
 31
0.0
100
AcDbText
  0
LINE
  5
237
330
170
100
AcDbEntity
  8
PROFILE
  6
AUSGEZOGEN
 62
     5
420
      255
370
    18
100
AcDbLine
 10
335.770407038395
 20
2.529308395211
 30
0.0
 11
335.770407038395
 21
14.416414177938
 31
0.0
  0
TEXT
  5
238
330
170
100
AcDbEntity
  8
PROFILE
  6
AUSGEZOGEN
 62
     1
420
 16711680
370
    18
100
AcDbText
 10
260.320637080659
 20
16.804864512593
 30
0.0
 40
3.5
  1
FULL
 41
1.318195155484
  7
Lucida Calligraphy
 72
     5
 11
276.067137310495
 21
16.804864512593
 31
0.0
100
AcDbText
  0
LINE
  5
239
330
170
100
AcDbEntity
  8
PROFILE
  6
AUSGEZOGEN
 62
     5
420
      255
370
    18
100
AcDbLine
 10
211.582009582371
 20
2.529308395211
 30
0.0
 11
211.582009582371
 21
264.479508395211
 31
0.0
  0
LINE
  5
23A
330
170
100
AcDbEntity
  8
PROFILE
  6
AUSGEZOGEN
 62
     5
420
      255
370
    18
100
AcDbLine
 10
412.750009582371
 20
2.529308395211
 30
0.0
 11
412.750009582371
 21
264.479508395211
 31
0.0
  0
LINE
  5
23B
330
170
100
AcDbEntity
  8
PROFILE
  6
AUSGEZOGEN
 62
     5
420
      255
370
    18
100
AcDbLine
 10
412.750009582371
 20
264.479508395211
 30
0.0
 11
211.582009582371
 21
264.479508395211
 31
0.0
  0
WIPEOUT
  5
23C
330
170
100
AcDbEntity
  8
PROFILE
  6
AUSGEZOGEN
 62
     5
420
      255
370
    18
 92
      308
310
34010000070000000C0000000E000000120000000C00000016000000000000C20C00000014000000010000006C0000000700000004000000BF9B6AE7F0A56A40529112027DC8404000000000000000003CE344C81CD57440529112027DC8404000000000000000003CE344C81CD57440658C445EDA17444000000000000000
310
00BF9B6AE7F0A56A40658C445EDA17444000000000000000000C0000000E000000050000000C00000016000000FF0000C2840000000600000005000000BF9B6AE7F0A56A40529112027DC8404000000000000000003CE344C81CD57440529112027DC8404000000000000000003CE344C81CD57440658C445EDA1744400000
310
000000000000BF9B6AE7F0A56A40658C445EDA1744400000000000000000BF9B6AE7F0A56A40529112027DC840400000000000000000
100
AcDbWipeout
 90
        0
 10
213.185657222957
 20
33.56631494433
 30
0.0
 11
120.1338697060326
 21
0.0
 31
0.0
 12
0.0
 22
120.1338697060326
 32
0.0
 13
1.0
 23
1.0
340
0
 70
     7
280
     1
281
    50
282
    50
283
     0
360
0
 71
     2
 91
        5
 14
-0.5
 24
0.5
 14
0.5
 24
0.5
 14
0.5
 24
0.444894502762
 14
-0.5
 24
0.444894502762
 14
-0.5
 24
0.5
  0
TEXT
  5
23D
330
170
100
AcDbEntity
  8
PROFILE
  6
AUSGEZOGEN
 62
     5
420
      255
370
    18
100
AcDbText
 10
213.185657222957
 20
34.807571811573
 30
0.0
 40
4.137522890809
  1
PLEASE SIGN OR MAKE CORRECT CHANGES.
 41
0.935804806331
  7
Lucida Calligraphy
 72
     5
 11
333.31952692899
 21
34.807571811573
 31
0.0
100
AcDbText
  0
WIPEOUT
  5
23E
330
170
100
AcDbEntity
  8
PROFILE
  6
AUSGEZOGEN
 62
     1
420
 16711680
370
    18
 92
      308
310
34010000070000000C0000000E000000120000000C00000016000000000000C20C00000014000000010000006C0000000700000004000000F448CDD2C0137540260BDBC40EC340400000000000000000287C101ECDC67940260BDBC40EC340400000000000000000287C101ECDC67940F3D7A791DB8F434000000000000000
310
00F448CDD2C0137540F3D7A791DB8F434000000000000000000C0000000E000000010000000C000000160000000000FFC2840000000600000005000000F448CDD2C0137540260BDBC40EC340400000000000000000287C101ECDC67940260BDBC40EC340400000000000000000287C101ECDC67940F3D7A791DB8F43400000
310
000000000000F448CDD2C0137540F3D7A791DB8F43400000000000000000F448CDD2C0137540260BDBC40EC340400000000000000000
100
AcDbWipeout
 90
        0
 10
337.234576036353
 20
33.523888213115
 30
0.0
 11
75.19050146341323
 21
0.0
 31
0.0
 12
0.0
 22
75.19050146341323
 32
0.0
 13
1.0
 23
1.0
340
0
 70
     7
280
     1
281
    50
282
    50
283
     0
360
0
 71
     2
 91
        5
 14
-0.5
 24
0.5
 14
0.5
 24
0.5
 14
0.5
 24
0.425522507617
 14
-0.5
 24
0.425522507617
 14
-0.5
 24
0.5
  0
TEXT
  5
23F
330
170
100
AcDbEntity
  8
PROFILE
  6
AUSGEZOGEN
 62
     1
420
 16711680
370
    18
100
AcDbText
 10
337.234576036353
 20
34.573888213115
 30
0.0
 40
3.5
  1
X------------------
 41
2.309751684563
  7
Brush Script MT
 72
     5
 11
412.425077499766
 21
34.573888213115
 31
0.0
100
AcDbText
  0
LINE
  5
240
330
170
100
AcDbEntity
  8
PROFILE
  6
AUSGEZOGEN
 62
     7
420
 16777215
370
    18
100
AcDbLine
 10
255.285775008823
 20
242.950868515275
 30
0.0
 11
262.513986852091
 21
242.950868515275
 31
0.0
  0
LINE
  5
241
330
170
100
AcDbEntity
  8
PROFILE
  6
AUSGEZOGEN
 62
     7
420
 16777215
370
    18
100
AcDbLine
 10
255.285775008823
 20
241.269128651715
 30
0.0
 11
262.513986852091
 21
241.269128651715
 31
0.0
  0
LINE
  5
242
330
170
100
AcDbEntity
  8
PROFILE
  6
AUSGEZOGEN
 62
     7
420
 16777215
370
    18
100
AcDbLine
 10
251.230924462599
 20
241.269128651715
 30
0.0
 11
254.521817659534
 21
241.269128651715
 31
0.0
  0
LINE
  5
243
330
170
100
AcDbEntity
  8
PROFILE
  6
AUSGEZOGEN
 62
     7
420
 16777215
370
    18
100
AcDbLine
 10
247.234839866321
 20
241.269128651715
 30
0.0
 11
250.34943521342
 21
241.269128651715
 31
0.0
  0
LINE
  5
244
330
170
100
AcDbEntity
  8
PROFILE
  6
AUSGEZOGEN
 62
     7
420
 16777215
370
    18
100
AcDbLine
 10
262.513986852091
 20
243.636021793022
 30
0.0
 11
262.513986852091
 21
249.149015957761
 31
0.0
  0
LINE
  5
245
330
170
100
AcDbEntity
  8
PROFILE
  6
AUSGEZOGEN
 62
     7
420
 16777215
370
    18
100
AcDbLine
 10
262.513986852091
 20
241.269128651715
 30
0.0
 11
262.513986852091
 21
242.950868515275
 31
0.0
  0
LINE
  5
246
330
170
100
AcDbEntity
  8
PROFILE
  6
AUSGEZOGEN
 62
     7
420
 16777215
370
    18
100
AcDbLine
 10
247.234839866321
 20
241.269128651715
 30
0.0
 11
247.234839866321
 21
252.231581095664
 31
0.0
  0
LINE
  5
247
330
170
100
AcDbEntity
  8
PROFILE
  6
AUSGEZOGEN
 62
     7
420
 16777215
370
    18
100
AcDbLine
 10
250.34943521342
 20
241.269128651715
 30
0.0
 11
250.34943521342
 21
248.560834916922
 31
0.0
  0
LINE
  5
248
330
170
100
AcDbEntity
  8
PROFILE
  6
AUSGEZOGEN
 62
     7
420
 16777215
370
    18
100
AcDbLine
 10
251.230924462599
 20
241.269128651715
 30
0.0
 11
251.230924462599
 21
248.560834916922
 31
0.0
  0
LINE
  5
249
330
170
100
AcDbEntity
  8
PROFILE
  6
AUSGEZOGEN
 62
     7
420
 16777215
370
    18
100
AcDbLine
 10
255.285775008823
 20
243.636021793022
 30
0.0
 11
255.285775008823
 21
248.564504282022
 31
0.0
  0
LINE
  5
24A
330
170
100
AcDbEntity
  8
PROFILE
  6
AUSGEZOGEN
 62
     7
420
 16777215
370
    18
100
AcDbLine
 10
255.285775008823
 20
241.269128651715
 30
0.0
 11
255.285775008823
 21
242.950868515275
 31
0.0
  0
LINE
  5
24B
330
170
100
AcDbEntity
  8
PROFILE
  6
AUSGEZOGEN
 62
     7
420
 16777215
370
    18
100
AcDbLine
 10
259.399391504991
 20
243.636021793022
 30
0.0
 11
259.399391504991
 21
252.231581095664
 31
0.0
  0
LINE
  5
24C
330
170
100
AcDbEntity
  8
PROFILE
  6
AUSGEZOGEN
 62
     7
420
 16777215
370
    18
100
AcDbLine
 10
259.399391504991
 20
243.636021793022
 30
0.0
 11
262.513986852091
 21
243.636021793022
 31
0.0
  0
LINE
  5
24D
330
170
100
AcDbEntity
  8
PROFILE
  6
AUSGEZOGEN
 62
     7
420
 16777215
370
    18
100
AcDbLine
 10
255.285775008823
 20
243.636021793022
 30
0.0
 11
258.400370355922
 21
243.636021793022
 31
0.0
  0
LINE
  5
24E
330
170
100
AcDbEntity
  8
PROFILE
  6
AUSGEZOGEN
 62
     7
420
 16777215
370
    18
100
AcDbLine
 10
259.399391504991
 20
252.231581095664
 30
0.0
 11
263.613926763276
 21
252.231581095664
 31
0.0
  0
LINE
  5
24F
330
170
100
AcDbEntity
  8
PROFILE
  6
AUSGEZOGEN
 62
     7
420
 16777215
370
    18
100
AcDbLine
 10
247.234839866321
 20
252.231581095664
 30
0.0
 11
250.488185263718
 21
252.231581095664
 31
0.0
  0
ARC
  5
250
330
170
100
AcDbEntity
  8
PROFILE
  6
AUSGEZOGEN
 62
     7
420
 16777215
370
    18
100
AcDbCircle
 10
250.488185263718
 20
249.319527976782
 30
0.0
 40
2.912053118881551
100
AcDbArc
 50
32.066426975729
 51
90.0
  0
LINE
  5
251
330
170
100
AcDbEntity
  8
PROFILE
  6
AUSGEZOGEN
 62
     7
420
 16777215
370
    18
100
AcDbLine
 10
258.400370355922
 20
243.636021793022
 30
0.0
 11
258.400370355922
 21
249.277882795376
 31
0.0
  0
ARC
  5
252
330
170
100
AcDbEntity
  8
PROFILE
  6
AUSGEZOGEN
 62
     7
420
 16777215
370
    18
100
AcDbCircle
 10
255.446672055635
 20
249.277882795376
 30
0.0
 40
2.953698300287107
100
AcDbArc
 50
0.0
 51
147.485292992988
  0
ARC
  5
253
330
170
100
AcDbEntity
  8
PROFILE
  6
AUSGEZOGEN
 62
     7
420
 16777215
370
    18
100
AcDbCircle
 10
250.79017983801
 20
248.560834916922
 30
0.0
 40
0.4407446245895066
100
AcDbArc
 50
0.0
 51
180.0
  0
LINE
  5
254
330
170
100
AcDbEntity
  8
PROFILE
  6
AUSGEZOGEN
 62
     7
420
 16777215
370
    18
100
AcDbLine
 10
267.86168829711
 20
241.269128651715
 30
0.0
 11
266.033855966927
 21
245.789586601682
 31
0.0
  0
ARC
  5
255
330
170
100
AcDbEntity
  8
PROFILE
  6
AUSGEZOGEN
 62
     7
420
 16777215
370
    18
100
AcDbCircle
 10
263.613926763276
 20
248.556061778206
 30
0.0
 40
3.675519317457272
100
AcDbArc
 50
311.177284003839
 51
90.0
  0
LINE
  5
256
330
170
100
AcDbEntity
  8
PROFILE
  6
AUSGEZOGEN
 62
     7
420
 16777215
370
    18
100
AcDbLine
 10
262.513986852091
 20
249.149015957761
 30
0.0
 11
263.18334728404
 21
249.149015957761
 31
0.0
  0
ARC
  5
257
330
170
100
AcDbEntity
  8
PROFILE
  6
AUSGEZOGEN
 62
     7
420
 16777215
370
    18
100
AcDbCircle
 10
263.18334728404
 20
248.369851157351
 30
0.0
 40
0.7791648004099827
100
AcDbArc
 50
269.396898994247
 51
90.0
  0
LINE
  5
258
330
170
100
AcDbEntity
  8
PROFILE
  6
AUSGEZOGEN
 62
     7
420
 16777215
370
    18
100
AcDbLine
 10
264.235842424336
 20
241.269128651715
 30
0.0
 11
267.86168829711
 21
241.269128651715
 31
0.0
  0
LINE
  5
259
330
170
100
AcDbEntity
  8
PROFILE
  6
AUSGEZOGEN
 62
     7
420
 16777215
370
    18
100
AcDbLine
 10
264.235842424336
 20
241.269128651715
 30
0.0
 11
263.175145870234
 21
243.878980032542
 31
0.0
  0
LINE
  5
25A
330
170
100
AcDbEntity
  8
PROFILE
  6
AUSGEZOGEN
 62
     7
420
 16777215
370
    18
100
AcDbLine
 10
263.18334728404
 20
247.590686356941
 30
0.0
 11
263.175145870234
 21
247.590686356941
 31
0.0
  0
LINE
  5
25B
330
170
100
AcDbEntity
  8
PROFILE
  6
AUSGEZOGEN
 62
     7
420
 16777215
370
    18
100
AcDbLine
 10
263.175145870234
 20
243.878980032542
 30
0.0
 11
263.175145870234
 21
247.590729521783
 31
0.0
  0
LINE
  5
25C
330
170
100
AcDbEntity
  8
PROFILE
  6
AUSGEZOGEN
 62
     7
420
 16777215
370
    18
100
AcDbLine
 10
254.411624489844
 20
241.269128651715
 30
0.0
 11
254.411624489844
 21
248.564504282022
 31
0.0
  0
ARC
  5
25D
330
170
100
AcDbEntity
  8
PROFILE
  6
AUSGEZOGEN
 62
     7
420
 16777215
370
    18
100
AcDbCircle
 10
254.848699749333
 20
248.564504282022
 30
0.0
 40
0.437075259489488
100
AcDbArc
 50
0.0
 51
180.0
  0
LINE
  5
25E
330
170
100
AcDbEntity
  8
PROFILE
  6
AUSGEZOGEN
 62
     7
420
 16777215
370
    18
100
AcDbLine
 10
265.969423654759
 20
258.801613245431
 30
0.0
 11
270.183958913044
 21
258.801613245431
 31
0.0
  0
LINE
  5
25F
330
170
100
AcDbEntity
  8
PROFILE
  6
AUSGEZOGEN
 62
     7
420
 16777215
370
    18
100
AcDbLine
 10
253.804872016089
 20
258.801613245431
 30
0.0
 11
257.058217413485
 21
258.801613245431
 31
0.0
  0
ARC
  5
260
330
170
100
AcDbEntity
  8
PROFILE
  6
AUSGEZOGEN
 62
     7
420
 16777215
370
    18
100
AcDbCircle
 10
257.058217413485
 20
255.88956012655
 30
0.0
 40
2.912053118881559
100
AcDbArc
 50
33.472713849325
 51
90.0
  0
ARC
  5
261
330
170
100
AcDbEntity
  8
PROFILE
  6
AUSGEZOGEN
 62
     7
420
 16777215
370
    18
100
AcDbCircle
 10
262.016704205402
 20
255.847914945144
 30
0.0
 40
2.953698300287107
100
AcDbArc
 50
31.162869112745
 51
135.0
  0
LINE
  5
262
330
170
100
AcDbEntity
  8
PROFILE
  6
AUSGEZOGEN
 62
     7
420
 16777215
370
    18
100
AcDbLine
 10
274.431720446878
 20
247.839160801483
 30
0.0
 11
272.603888116694
 21
252.35961875145
 31
0.0
  0
ARC
  5
263
330
170
100
AcDbEntity
  8
PROFILE
  6
AUSGEZOGEN
 62
     7
420
 16777215
370
    18
100
AcDbCircle
 10
270.183958913044
 20
255.126093927974
 30
0.0
 40
3.675519317457272
100
AcDbArc
 50
311.177284003839
 51
90.0
  0
LINE
  5
264
330
170
100
AcDbEntity
  8
PROFILE
  6
AUSGEZOGEN
 62
     7
420
 16777215
370
    18
100
AcDbLine
 10
253.804872016089
 20
258.801613245431
 30
0.0
 11
247.234839866321
 21
252.231581095664
 31
0.0
  0
LINE
  5
265
330
170
100
AcDbEntity
  8
PROFILE
  6
AUSGEZOGEN
 62
     7
420
 16777215
370
    18
100
AcDbLine
 10
274.431720446878
 20
247.839160801483
 30
0.0
 11
267.86168829711
 21
241.269128651715
 31
0.0
  0
LINE
  5
266
330
170
100
AcDbEntity
  8
PROFILE
  6
AUSGEZOGEN
 62
     7
420
 16777215
370
    18
100
AcDbLine
 10
272.603888116694
 20
252.35961875145
 30
0.0
 11
266.033855966927
 21
245.789586601682
 31
0.0
  0
LINE
  5
267
330
170
100
AcDbEntity
  8
PROFILE
  6
AUSGEZOGEN
 62
     7
420
 16777215
370
    18
100
AcDbLine
 10
265.969423654759
 20
258.801613245431
 30
0.0
 11
259.399391504991
 21
252.231581095664
 31
0.0
  0
LINE
  5
268
330
170
100
AcDbEntity
  8
PROFILE
  6
AUSGEZOGEN
 62
     7
420
 16777215
370
    18
100
AcDbLine
 10
253.358091957923
 20
251.366462893089
 30
0.0
 11
259.92812410769
 21
257.936495042856
 31
0.0
  0
LINE
  5
269
330
170
100
AcDbEntity
  8
PROFILE
  6
AUSGEZOGEN
 62
     7
420
 16777215
370
    18
100
AcDbLine
 10
250.34943521342
 20
241.269128651715
 30
0.0
 11
251.230924462599
 21
242.150617900894
 31
0.0
  0
LINE
  5
26A
330
170
100
AcDbEntity
  8
PROFILE
  6
AUSGEZOGEN
 62
     7
420
 16777215
370
    18
100
AcDbLine
 10
254.521817659534
 20
241.269128651715
 30
0.0
 11
255.285775008823
 21
242.033086001004
 31
0.0
  0
LINE
  5
26B
330
170
100
AcDbEntity
  8
PROFILE
  6
AUSGEZOGEN
 62
     7
420
 16777215
370
    18
100
AcDbLine
 10
262.513986852091
 20
242.950868515275
 30
0.0
 11
263.252288466094
 21
243.689170129278
 31
0.0
  0
LINE
  5
26C
330
170
100
AcDbEntity
  8
PROFILE
  6
AUSGEZOGEN
 62
     7
420
 16777215
370
    18
100
AcDbLine
 10
262.513986852091
 20
241.269128651715
 30
0.0
 11
263.738269226949
 21
242.493411026574
 31
0.0
  0
LINE
  5
26D
330
170
100
AcDbEntity
  8
PROFILE
  6
AUSGEZOGEN
 62
     7
420
 16777215
370
    18
100
AcDbLine
 10
255.285775008823
 20
242.950868515275
 30
0.0
 11
255.97092828657
 21
243.636021793022
 31
0.0
  0
LINE
  5
26E
330
170
100
AcDbEntity
  8
PROFILE
  6
AUSGEZOGEN
 62
     7
420
 16777215
370
    18
100
AcDbLine
 10
258.400370355922
 20
243.636021793022
 30
0.0
 11
259.399391504991
 21
244.635042942092
 31
0.0
  0
LINE
  5
26F
330
170
100
AcDbEntity
  8
PROFILE
  6
AUSGEZOGEN
 62
     7
420
 16777215
370
    18
100
AcDbLine
 10
262.513986852091
 20
243.636021793022
 30
0.0
 11
263.175145870234
 21
244.297180811165
 31
0.0
  0
HATCH
  5
270
330
170
100
AcDbEntity
  8
PROFILE
  6
AUSGEZOGEN
 62
     7
420
 16777215
370
    18
100
AcDbHatch
 10
0.0
 20
0.0
 30
0.0
210
0.0
220
0.0
230
1.0
  2
SOLID
 70
     1
 71
     0
 91
        1
 92
        2
 72
     1
 73
     1
 93
       36
 10
251.2309244625993
 20
248.5608349169222
 42
0.0
 10
251.2309244625993
 20
241.2691286517151
 42
0.0
 10
254.4116244898437
 20
241.2691286517151
 42
0.0
 10
254.4116244898437
 20
248.5645042820222
 42
-0.0984914033571201
 10
254.4448948629238
 20
248.7317657425255
 42
-0.0984914033573957
 10
254.5396408694593
 20
248.873563161896
 42
-0.0984914033573227
 10
254.6814382888299
 20
248.9683091684315
 42
-0.0984914033570199
 10
254.8486997493332
 20
249.0015795415116
 42
-0.098491403357036
 10
255.0159612098365
 20
248.9683091684315
 42
-0.09849140335735
 10
255.1577586292071
 20
248.873563161896
 42
-0.0984914033573958
 10
255.2525046357426
 20
248.7317657425255
 42
-0.0984914033571168
 10
255.2857750088227
 20
248.5645042820222
 42
0.0
 10
255.2857750088227
 20
243.6360217930222
 42
0.0
 10
258.4003703559218
 20
243.6360217930222
 42
0.0
 10
258.4003703559218
 20
249.2778827953765
 42
0.0921921528156865
 10
258.2029041641447
 20
250.3397294006531
 42
0.0921921528156901
 10
257.6369083509987
 20
251.2595988748361
 42
0.0921921528156937
 10
256.7780609488495
 20
251.9144975310068
 42
0.0921921528156405
 10
255.7411965200515
 20
252.2168603367977
 42
0.0921921528156545
 10
254.6649518848403
 20
252.1262590387284
 42
0.0921921528156871
 10
253.6932293026413
 20
251.6548077334201
 42
0.0921921528156574
 10
252.9559556232968
 20
250.8655431188716
 42
0.0844609494626365
 10
252.3058446800878
 20
251.5946472293198
 42
0.0844609494626342
 10
251.4511975305157
 20
252.0677384383704
 42
0.084460949462618
 10
250.4881852637176
 20
252.2315810956635
 42
0.0
 10
247.2348398663211
 20
252.2315810956635
 42
0.0
 10
247.2348398663211
 20
241.2691286517151
 42
0.0
 10
250.3494352134202
 20
241.2691286517151
 42
0.0
 10
250.3494352134202
 20
248.5608349169222
 42
-0.0984914033572098
 10
250.3829849002871
 20
248.7295005826565
 42
-0.0984914033570297
 10
250.4785263251909
 20
248.872488429741
 42
-0.0984914033570615
 10
250.6215141722753
 20
248.9680298546448
 42
-0.098491403357133
 10
250.7901798380097
 20
249.0015795415117
 42
-0.098491403357101
 10
250.9588455037441
 20
248.9680298546448
 42
-0.0984914033570886
 10
251.1018333508285
 20
248.872488429741
 42
-0.0984914033570117
 10
251.1973747757323
 20
248.7295005826565
 42
-0.0984914033572098
 97
        0
 75
     0
 76
     1
 98
        0
  0
HATCH
  5
271
330
170
100
AcDbEntity
  8
PROFILE
  6
AUSGEZOGEN
 62
     7
420
 16777215
370
    18
100
AcDbHatch
 10
0.0
 20
0.0
 30
0.0
210
0.0
220
0.0
230
1.0
  2
SOLID
 70
     1
 71
     0
 91
        1
 92
        2
 72
     1
 73
     1
 93
       25
 10
263.6139267632764
 20
252.2315810956635
 42
0.0
 10
259.3993915049914
 20
252.2315810956635
 42
0.0
 10
259.3993915049914
 20
243.6360217930222
 42
0.0
 10
262.5139868520906
 20
243.6360217930222
 42
0.0
 10
262.5139868520906
 20
249.1490159577607
 42
0.0
 10
263.1833472840401
 20
249.1490159577607
 42
-0.0984914033573361
 10
263.4815207442391
 20
249.0897055689027
 42
-0.0984914033573228
 10
263.7342999980719
 20
248.9208038713824
 42
-0.0984914033570853
 10
263.9032016955921
 20
248.6680246175497
 42
-0.0984914033571532
 10
263.9625120844501
 20
248.3698511573508
 42
-0.0984914033571352
 10
263.9032016955921
 20
248.0716776971518
 42
-0.0984914033570546
 10
263.7342999980719
 20
247.8188984433189
 42
-0.098491403357323
 10
263.4815207442391
 20
247.6499967457987
 42
-0.0984914033573433
 10
263.1833472840401
 20
247.5906863569408
 42
0.0
 10
263.1751458702336
 20
247.5906863569408
 42
0.0
 10
263.1751458702336
 20
243.8789800325419
 42
0.0
 10
264.2358424243358
 20
241.2691286517151
 42
0.0
 10
267.8616882971099
 20
241.2691286517151
 42
0.0
 10
266.0338559669266
 20
245.7895866016824
 42
0.0
 10
266.3804019398001
 20
246.1361325745558
 42
0.0956852398052985
 10
267.0825798967404
 20
247.3403777350798
 42
0.0956852398052948
 10
267.2858108381549
 20
248.7194924780617
 42
0.0956852398053042
 10
266.9608610909782
 20
250.0750985977247
 42
0.0956852398052757
 10
266.1544729209576
 20
251.2121994767628
 42
0.0956852398052787
 10
264.982640910228
 20
251.9672292963643
 42
0.0956852398052959
 97
        0
 75
     0
 76
     1
 98
        0
  0
HATCH
  5
272
330
170
100
AcDbEntity
  8
PROFILE
  6
AUSGEZOGEN
 62
     1
420
 16711680
370
    18
100
AcDbHatch
 10
0.0
 20
0.0
 30
0.0
210
0.0
220
0.0
230
1.0
  2
SOLID
 70
     1
 71
     0
 91
        1
 92
        2
 72
     0
 73
     1
 93
        4
 10
255.2857750088227
 20
242.9508685152754
 10
255.2857750088227
 20
241.2691286517151
 10
262.5139868520906
 20
241.2691286517151
 10
262.5139868520906
 20
242.9508685152754
 97
        0
 75
     0
 76
     1
 98
        0
  0
LINE
  5
273
330
170
100
AcDbEntity
  8
PROFILE
  6
AUSGEZOGEN
 62
     5
420
      255
370
    18
100
AcDbLine
 10
252.246018766473
 20
262.001066414502
 30
0.0
 11
372.098636999174
 21
262.001066414502
 31
0.0
  0
LINE
  5
274
330
170
100
AcDbEntity
  8
PROFILE
  6
AUSGEZOGEN
 62
     5
420
      255
370
    18
100
AcDbLine
 10
242.721018766473
 20
246.545301808633
 30
0.0
 11
242.721018766473
 21
252.476066414503
 31
0.0
  0
ARC
  5
275
330
170
100
AcDbEntity
  8
PROFILE
  6
AUSGEZOGEN
 62
     5
420
      255
370
    18
100
AcDbCircle
 10
252.246018766473
 20
252.476066414503
 30
0.0
 40
9.524999999999999
100
AcDbArc
 50
90.0
 51
180.0
  0
WIPEOUT
  5
276
330
170
100
AcDbEntity
  8
PROFILE
  6
AUSGEZOGEN
 62
     1
420
 16711680
370
    18
 92
      308
310
34010000070000000C0000000E000000120000000C00000016000000000000C20C00000014000000010000006C00000007000000040000006E0B58FE37717140DF8B2E7373B16F4000000000000000002AE608E4D2687740DF8B2E7373B16F4000000000000000002AE608E4D2687740A3E8283A2957704000000000000000
310
006E0B58FE37717140A3E8283A2957704000000000000000000C0000000E000000010000000C000000160000000000FFC28400000006000000050000006E0B58FE37717140DF8B2E7373B16F4000000000000000002AE608E4D2687740DF8B2E7373B16F4000000000000000002AE608E4D2687740A3E8283A295770400000
310
0000000000006E0B58FE37717140A3E8283A2957704000000000000000006E0B58FE37717140DF8B2E7373B16F400000000000000000
100
AcDbWipeout
 90
        0
 10
279.076170295643
 20
253.54534300891
 30
0.0
 11
95.47531670650261
 21
0.0
 31
0.0
 12
0.0
 22
95.47531670650261
 32
0.0
 13
1.0
 23
1.0
340
0
 70
     7
280
     1
281
    50
282
    50
283
     0
360
0
 71
     2
 91
        5
 14
-0.5
 24
0.5
 14
0.5
 24
0.5
 14
0.5
 24
0.417232825249
 14
-0.5
 24
0.417232825249
 14
-0.5
 24
0.5
  0
TEXT
  5
277
330
170
100
AcDbEntity
  8
PROFILE
  6
AUSGEZOGEN
 62
     1
420
 16711680
370
    18
100
AcDbText
 10
279.076170295643
 20
255.027009675577
 30
0.0
 40
4.938888888889
  1
Mirror Reflections Inc.
 41
1.424144335948
  7
Lucida Calligraphy
 72
     5
 11
374.551487002146
 21
255.027009675577
 31
0.0
100
AcDbText
  0
WIPEOUT
  5
278
330
170
100
AcDbEntity
  8
PROFILE
  6
AUSGEZOGEN
 62
     7
420
 16777215
370
    18
 92
      308
310
34010000070000000C0000000E000000120000000C00000016000000000000C20C00000014000000010000006C000000070000000400000060A0DF7FB66971404C491E57080F6F4000000000000000009025A3DF2F6B77404C491E57080F6F4000000000000000009025A3DF2F6B77407F7C518A3BC26F4000000000000000
310
0060A0DF7FB66971407F7C518A3BC26F4000000000000000000C0000000E000000070000000C00000016000000FFFFFFC284000000060000000500000060A0DF7FB66971404C491E57080F6F4000000000000000009025A3DF2F6B77404C491E57080F6F4000000000000000009025A3DF2F6B77407F7C518A3BC26F400000
310
00000000000060A0DF7FB66971407F7C518A3BC26F40000000000000000060A0DF7FB66971404C491E57080F6F400000000000000000
100
AcDbWipeout
 90
        0
 10
278.607055543462
 20
248.469768103745
 30
0.0
 11
96.0921323430548
 21
0.0
 31
0.0
 12
0.0
 22
96.0921323430548
 32
0.0
 13
1.0
 23
1.0
340
0
 70
     7
280
     1
281
    50
282
    50
283
     0
360
0
 71
     2
 91
        5
 14
-0.5
 24
0.5
 14
0.5
 24
0.5
 14
0.5
 24
0.441722596185
 14
-0.5
 24
0.441722596185
 14
-0.5
 24
0.5
  0
TEXT
  5
279
330
170
100
AcDbEntity
  8
PROFILE
  6
AUSGEZOGEN
 62
     7
420
 16777215
370
    18
100
AcDbText
 10
278.607055543462
 20
249.519768103745
 30
0.0
 40
3.5
  1
1588 South 250 East - Kaysville Utah 84037
 41
1.002442491425
  7
Lucida Calligraphy
 72
     5
 11
374.699187886516
 21
249.519768103745
 31
0.0
100
AcDbText
  0
WIPEOUT
  5
27A
330
170
100
AcDbEntity
  8
PROFILE
  6
AUSGEZOGEN
 62
     7
420
 16777215
370
    18
 92
      308
310
34010000070000000C0000000E000000120000000C00000016000000000000C20C00000014000000010000006C000000070000000400000044CAEE82B35A7140BEE62915225C6E400000000000000000F6273AF1BB617740BEE62915225C6E400000000000000000F6273AF1BB617740F1195D48550F6F4000000000000000
310
0044CAEE82B35A7140F1195D48550F6F4000000000000000000C0000000E000000070000000C00000016000000FFFFFFC284000000060000000500000044CAEE82B35A7140BEE62915225C6E400000000000000000F6273AF1BB617740BEE62915225C6E400000000000000000F6273AF1BB617740F1195D48550F6F400000
310
00000000000044CAEE82B35A7140F1195D48550F6F40000000000000000044CAEE82B35A7140BEE62915225C6E400000000000000000
100
AcDbWipeout
 90
        0
 10
277.668826039099
 20
242.879160482253
 30
0.0
 11
96.43955830993502
 21
0.0
 31
0.0
 12
0.0
 22
96.43955830993502
 32
0.0
 13
1.0
 23
1.0
340
0
 70
     7
280
     1
281
    50
282
    50
283
     0
360
0
 71
     2
 91
        5
 14
-0.5
 24
0.5
 14
0.5
 24
0.5
 14
0.5
 24
0.441932542018
 14
-0.5
 24
0.441932542018
 14
-0.5
 24
0.5
  0
TEXT
  5
27B
330
170
100
AcDbEntity
  8
PROFILE
  6
AUSGEZOGEN
 62
     7
420
 16777215
370
    18
100
AcDbText
 10
277.668826039099
 20
243.929160482253
 30
0.0
 40
3.5
  1
Phone / Fax (801)-451-5987
 41
1.571470258762
  7
Lucida Calligraphy
 72
     5
 11
374.108384349034
 21
243.929160482253
 31
0.0
100
AcDbText
  0
WIPEOUT
  5
27C
330
170
100
AcDbEntity
  8
PROFILE
  6
AUSGEZOGEN
 62
     7
420
 16777215
370
    18
 92
      308
310
34010000070000000C0000000E000000120000000C00000016000000000000C20C00000014000000010000006C0000000700000004000000D2F3C378E35571405ABB109FADA96D400000000000000000707EF1FEAD5E77405ABB109FADA96D400000000000000000707EF1FEAD5E7740A45A05E94C5E6E4000000000000000
310
00D2F3C378E3557140A45A05E94C5E6E4000000000000000000C0000000E000000070000000C00000016000000FFFFFFC2840000000600000005000000D2F3C378E35571405ABB109FADA96D400000000000000000707EF1FEAD5E77405ABB109FADA96D400000000000000000707EF1FEAD5E7740A45A05E94C5E6E400000
310
000000000000D2F3C378E3557140A45A05E94C5E6E400000000000000000D2F3C378E35571405ABB109FADA96D400000000000000000
100
AcDbWipeout
 90
        0
 10
277.368035092773
 20
237.302444012336
 30
0.0
 11
96.54944436826361
 21
0.0
 31
0.0
 12
0.0
 22
96.54944436826361
 32
0.0
 13
1.0
 23
1.0
340
0
 70
     7
280
     1
281
    50
282
    50
283
     0
360
0
 71
     2
 91
        5
 14
-0.5
 24
0.5
 14
0.5
 24
0.5
 14
0.5
 24
0.441538302148
 14
-0.5
 24
0.441538302148
 14
-0.5
 24
0.5
  0
TEXT
  5
27D
330
170
100
AcDbEntity
  8
PROFILE
  6
AUSGEZOGEN
 62
     7
420
 16777215
370
    18
100
AcDbText
 10
277.368035092773
 20
238.360777345669
 30
0.0
 40
3.527777777778
  1
www.mirror-reflections.com
 41
1.618758291542
  7
Lucida Calligraphy
 72
     5
 11
373.917479461036
 21
238.360777345669
 31
0.0
100
AcDbText
  0
LINE
  5
27E
330
170
100
AcDbEntity
  8
PROFILE
  6
AUSGEZOGEN
 62
     5
420
      255
370
    18
100
AcDbLine
 10
381.623636999174
 20
246.545301808633
 30
0.0
 11
381.623636999174
 21
252.476066414503
 31
0.0
  0
ARC
  5
27F
330
170
100
AcDbEntity
  8
PROFILE
  6
AUSGEZOGEN
 62
     5
420
      255
370
    18
100
AcDbCircle
 10
372.098636999174
 20
252.476066414503
 30
0.0
 40
9.524999999999999
100
AcDbArc
 50
0.0
 51
90.0
  0
LINE
  5
280
330
170
100
AcDbEntity
  8
PROFILE
  6
AUSGEZOGEN
 62
     5
420
      255
370
    18
100
AcDbLine
 10
252.246018766473
 20
237.020301808633
 30
0.0
 11
372.098636999174
 21
237.020301808633
 31
0.0
  0
ARC
  5
281
330
170
100
AcDbEntity
  8
PROFILE
  6
AUSGEZOGEN
 62
     5
420
      255
370
    18
100
AcDbCircle
 10
372.098636999174
 20
246.545301808633
 30
0.0
 40
9.524999999999999
100
AcDbArc
 50
270.0
 51
0.0
  0
ARC
  5
282
330
170
100
AcDbEntity
  8
PROFILE
  6
AUSGEZOGEN
 62
     5
420
      255
370
    18
100
AcDbCircle
 10
252.246018766473
 20
246.545301808633
 30
0.0
 40
9.524999999999999
100
AcDbArc
 50
180.0
 51
270.0
  0
LINE
  5
283
330
170
100
AcDbEntity
  8
PROFILE
  6
AUSGEZOGEN
 62
     5
420
      255
370
    18
100
AcDbLine
 10
369.905990797597
 20
14.577352326713
 30
0.0
 11
369.905990797597
 21
25.773413309135
 31
0.0
  0
WIPEOUT
  5
284
330
170
100
AcDbEntity
  8
PROFILE
  6
AUSGEZOGEN
 62
     5
420
      255
370
    18
 92
      308
310
34010000070000000C0000000E000000120000000C00000016000000000000C20C00000014000000010000006C00000007000000040000000EF33412E6246C40AE6A120707F8344000000000000000008E88789D52FC6D40AE6A120707F8344000000000000000008E88789D52FC6D4087CCFC79027C394000000000000000
310
000EF33412E6246C4087CCFC79027C394000000000000000000C0000000E000000050000000C00000016000000FF0000C28400000006000000050000000EF33412E6246C40AE6A120707F8344000000000000000008E88789D52FC6D40AE6A120707F8344000000000000000008E88789D52FC6D4087CCFC79027C39400000
310
0000000000000EF33412E6246C4087CCFC79027C394000000000000000000EF33412E6246C40AE6A120707F834400000000000000000
100
AcDbWipeout
 90
        0
 10
225.15308485357
 20
20.968857233044
 30
0.0
 11
14.732
 21
0.0
 31
0.0
 12
0.0
 22
14.732
 32
0.0
 13
1.0
 23
1.0
340
0
 70
     7
280
     1
281
    50
282
    50
283
     0
360
0
 71
     2
 91
        5
 14
-0.5
 24
0.5
 14
0.5
 24
0.5
 14
0.5
 24
0.193486590038
 14
-0.5
 24
0.193486590038
 14
-0.5
 24
0.5
  0
TEXT
  5
285
330
170
100
AcDbEntity
  8
PROFILE
  6
AUSGEZOGEN
 62
     5
420
      255
370
    18
100
AcDbText
 10
225.15308485357
 20
21.815523899711
 30
0.0
 40
2.822222222222
  1
Customer
 41
0.862809917355
  7
Lucida Calligraphy
 72
     5
 11
239.88508485357
 21
21.815523899711
 31
0.0
100
AcDbText
  0
WIPEOUT
  5
286
330
170
100
AcDbEntity
  8
PROFILE
  6
AUSGEZOGEN
 62
     5
420
      255
370
    18
 92
      308
310
34010000070000000C0000000E000000120000000C00000016000000000000C20C00000014000000010000006C0000000700000004000000062E849595827040443014015FA5344000000000000000009AFF5F48EC017140443014015FA5344000000000000000009AFF5F48EC0171401D92FE735A29394000000000000000
310
00062E8495958270401D92FE735A29394000000000000000000C0000000E000000050000000C00000016000000FF0000C2840000000600000005000000062E849595827040443014015FA5344000000000000000009AFF5F48EC017140443014015FA5344000000000000000009AFF5F48EC0171401D92FE735A2939400000
310
000000000000062E8495958270401D92FE735A2939400000000000000000062E849595827040443014015FA534400000000000000000
100
AcDbWipeout
 90
        0
 10
264.161519543006
 20
20.645980899266
 30
0.0
 11
7.958666666666659
 21
0.0
 31
0.0
 12
0.0
 22
7.958666666666659
 32
0.0
 13
1.0
 23
1.0
340
0
 70
     7
280
     1
281
    50
282
    50
283
     0
360
0
 71
     2
 91
        5
 14
-0.5
 24
0.5
 14
0.5
 24
0.5
 14
0.5
 24
-0.067375886525
 14
-0.5
 24
-0.067375886525
 14
-0.5
 24
0.5
  0
TEXT
  5
287
330
170
100
AcDbEntity
  8
PROFILE
  6
AUSGEZOGEN
 62
     5
420
      255
370
    18
100
AcDbText
 10
264.161519543006
 20
21.492647565933
 30
0.0
 40
2.822222222222
  1
Scale
 41
0.807791463764
  7
Lucida Calligraphy
 72
     5
 11
272.120186209673
 21
21.492647565933
 31
0.0
100
AcDbText
  0
WIPEOUT
  5
288
330
170
100
AcDbEntity
  8
PROFILE
  6
AUSGEZOGEN
 62
     5
420
      255
370
    18
 92
      308
310
34010000070000000C0000000E000000120000000C00000016000000000000C20C00000014000000010000006C0000000700000004000000344043D4E2FB7340F4A24C27AFED34400000000000000000CE92B4CAC49D7440F4A24C27AFED34400000000000000000CE92B4CAC49D7440CD04379AAA71394000000000000000
310
00344043D4E2FB7340CD04379AAA71394000000000000000000C0000000E000000050000000C00000016000000FF0000C2840000000600000005000000344043D4E2FB7340F4A24C27AFED34400000000000000000CE92B4CAC49D7440F4A24C27AFED34400000000000000000CE92B4CAC49D7440CD04379AAA7139400000
310
000000000000344043D4E2FB7340CD04379AAA7139400000000000000000344043D4E2FB7340F4A24C27AFED34400000000000000000
100
AcDbWipeout
 90
        0
 10
319.742878210734
 20
20.92845388051
 30
0.0
 11
10.11766666666665
 21
0.0
 31
0.0
 12
0.0
 22
10.11766666666665
 32
0.0
 13
1.0
 23
1.0
340
0
 70
     7
280
     1
281
    50
282
    50
283
     0
360
0
 71
     2
 91
        5
 14
-0.5
 24
0.5
 14
0.5
 24
0.5
 14
0.5
 24
0.05369595537
 14
-0.5
 24
0.05369595537
 14
-0.5
 24
0.5
  0
TEXT
  5
289
330
170
100
AcDbEntity
  8
PROFILE
  6
AUSGEZOGEN
 62
     5
420
      255
370
    18
100
AcDbText
 10
319.742878210734
 20
21.775120547177
 30
0.0
 40
2.822222222222
  1
Part #
 41
0.962674543502
  7
Lucida Calligraphy
 72
     5
 11
329.8605448774
 21
21.775120547177
 31
0.0
100
AcDbText
  0
WIPEOUT
  5
28A
330
170
100
AcDbEntity
  8
PROFILE
  6
AUSGEZOGEN
 62
     5
420
      255
370
    18
 92
      308
310
34010000070000000C0000000E000000120000000C00000016000000000000C20C00000014000000010000006C000000070000000400000016FE29013F1F78404CB8D5D7C8C134400000000000000000401391207D9878404CB8D5D7C8C134400000000000000000401391207D987840251AC04AC445394000000000000000
310
0016FE29013F1F7840251AC04AC445394000000000000000000C0000000E000000050000000C00000016000000FF0000C284000000060000000500000016FE29013F1F78404CB8D5D7C8C134400000000000000000401391207D9878404CB8D5D7C8C134400000000000000000401391207D987840251AC04AC44539400000
310
00000000000016FE29013F1F7840251AC04AC4453940000000000000000016FE29013F1F78404CB8D5D7C8C134400000000000000000
100
AcDbWipeout
 90
        0
 10
385.952881969484
 20
20.756970872572
 30
0.0
 11
7.577666666666687
 21
0.0
 31
0.0
 12
0.0
 22
7.577666666666687
 32
0.0
 13
1.0
 23
1.0
340
0
 70
     7
280
     1
281
    50
282
    50
283
     0
360
0
 71
     2
 91
        5
 14
-0.5
 24
0.5
 14
0.5
 24
0.5
 14
0.5
 24
-0.095903165736
 14
-0.5
 24
-0.095903165736
 14
-0.5
 24
0.5
  0
TEXT
  5
28B
330
170
100
AcDbEntity
  8
PROFILE
  6
AUSGEZOGEN
 62
     5
420
      255
370
    18
100
AcDbText
 10
385.952881969484
 20
21.603637539238
 30
0.0
 40
2.822222222222
  1
Date
 41
0.91078697422
  7
Lucida Calligraphy
 72
     5
 11
393.53054863615
 21
21.603637539238
 31
0.0
100
AcDbText
  0
LINE
  5
28C
330
170
100
AcDbEntity
  8
PROFILE
  6
AUSGEZOGEN
 62
     5
420
      255
370
    18
100
AcDbLine
 10
256.665417931699
 20
14.577352326713
 30
0.0
 11
256.665417931699
 21
25.773413309135
 31
0.0
  0
LINE
  5
28D
330
170
100
AcDbEntity
  8
PROFILE
  6
AUSGEZOGEN
 62
     5
420
      255
370
    18
100
AcDbLine
 10
279.824192701184
 20
14.577352326713
 30
0.0
 11
279.824192701184
 21
25.773413309135
 31
0.0
  0
TEXT
  5
28E
330
170
100
AcDbEntity
  8
PROFILE
  6
AUSGEZOGEN
 62
     7
420
 16777215
370
    18
100
AcDbText
 10
307.565670370831
 20
28.089238725174
 30
0.0
 40
4.181939959382
  1
 Yes   No       Please Circle One
 41
1.180002116037
  7
Lucida Calligraphy
 72
     5
 11
404.803894484727
 21
28.089238725174
 31
0.0
100
AcDbText
  0
WIPEOUT
  5
28F
330
170
100
AcDbEntity
  8
PROFILE
  6
AUSGEZOGEN
 62
     7
420
 16777215
370
    18
 92
      308
310
34010000070000000C0000000E000000120000000C00000016000000000000C20C00000014000000010000006C00000007000000040000005559F1EA4DF97040E4F075A0C02F6E40000000000000000030DE9B99C1087140E4F075A0C02F6E40000000000000000030DE9B99C1087140683A0EEBD25A6E4000000000000000
310
005559F1EA4DF97040683A0EEBD25A6E4000000000000000000C0000000E000000070000000C00000016000000FFFFFFC28400000006000000050000005559F1EA4DF97040E4F075A0C02F6E40000000000000000030DE9B99C1087140E4F075A0C02F6E40000000000000000030DE9B99C1087140683A0EEBD25A6E400000
310
0000000000005559F1EA4DF97040683A0EEBD25A6E4000000000000000005559F1EA4DF97040E4F075A0C02F6E400000000000000000
100
AcDbWipeout
 90
        0
 10
271.58152288701
 20
241.492264013627
 30
0.0
 11
1.345982835231695
 21
0.0
 31
0.0
 12
0.0
 22
1.345982835231695
 32
0.0
 13
1.0
 23
1.0
340
0
 70
     7
280
     1
281
    50
282
    50
283
     0
360
0
 71
     2
 91
        5
 14
-0.5
 24
0.5
 14
0.217500046182
 24
0.5
 14
0.217500046182
 24
-0.5
 14
-0.5
 24
-0.5
 14
-0.5
 24
0.5
  0
TEXT
  5
290
330
170
100
AcDbEntity
  8
PROFILE
  6
AUSGEZOGEN
 62
     7
420
 16777215
370
    18
100
AcDbText
 10
271.58152288701
 20
241.744635795233
 30
0.0
 40
0.84123927202
  1
R
 41
1.138888962193
  7
Arial
 72
     5
 11
272.547265633449
 21
241.744635795233
 31
0.0
100
AcDbText
  0
CIRCLE
  5
291
330
170
100
AcDbEntity
  8
PROFILE
  6
AUSGEZOGEN
 62
     7
420
 16777215
370
    18
100
AcDbCircle
 10
272.052755891572
 20
242.170780031793
 30
0.0
 40
1.0541
  0
WIPEOUT
  5
292
330
170
100
AcDbEntity
  8
PROFILE
  6
AUSGEZOGEN
 62
     1
420
 16711680
370
    18
 92
      308
310
34010000070000000C0000000E000000120000000C00000016000000000000C20C00000014000000010000006C000000070000000400000047ADEBC2F6566C403821B3CA2D992E400000000000000000E146456DE8C96D403821B3CA2D992E400000000000000000E146456DE8C96D40362AF37E30E6344000000000000000
310
0047ADEBC2F6566C40362AF37E30E6344000000000000000000C0000000E000000010000000C000000160000000000FFC284000000060000000500000047ADEBC2F6566C403821B3CA2D992E400000000000000000E146456DE8C96D403821B3CA2D992E400000000000000000E146456DE8C96D40362AF37E30E634400000
310
00000000000047ADEBC2F6566C40362AF37E30E63440000000000000000047ADEBC2F6566C403821B3CA2D992E400000000000000000
100
AcDbWipeout
 90
        0
 10
226.717622242266
 20
15.299177488676
 30
0.0
 11
11.59200017452241
 21
0.0
 31
0.0
 12
0.0
 22
11.59200017452241
 32
0.0
 13
1.0
 23
1.0
340
0
 70
     7
280
     1
281
    50
282
    50
283
     0
360
0
 71
     2
 91
        5
 14
-0.5
 24
0.5
 14
0.5
 24
0.5
 14
0.5
 24
0.016908219834
 14
-0.5
 24
0.016908219834
 14
-0.5
 24
0.5
  0
TEXT
  5
293
330
170
100
AcDbEntity
  8
PROFILE
  6
AUSGEZOGEN
 62
     1
420
 16711680
370
    18
100
AcDbText
 10
226.717622242266
 20
16.349177488676
 30
0.0
 40
3.5
  1
H M
 41
1.294255588067
  7
Arial
 72
     5
 11
238.309622416788
 21
16.349177488676
 31
0.0
100
AcDbText
  0
LINE
  5
294
330
170
100
AcDbEntity
  8
PROFILE
  6
AUSGEZOGEN
 62
     7
420
 16777215
370
    18
100
AcDbLine
 10
402.876779880233
 20
155.974766636976
 30
0.0
 11
370.219637023091
 21
155.974766636976
 31
0.0
  0
LINE
  5
295
330
170
100
AcDbEntity
  8
PROFILE
  6
AUSGEZOGEN
 62
     7
420
 16777215
370
    18
100
AcDbLine
 10
402.876779880233
 20
155.974766636976
 30
0.0
 11
402.876779880233
 21
172.303338065547
 31
0.0
  0
LINE
  5
296
330
170
100
AcDbEntity
  8
PROFILE
  6
AUSGEZOGEN
 62
     7
420
 16777215
370
    18
100
AcDbLine
 10
370.219637023091
 20
155.974766636976
 30
0.0
 11
370.219637023091
 21
158.696195208404
 31
0.0
  0
LINE
  5
297
330
170
100
AcDbEntity
  8
PROFILE
  6
AUSGEZOGEN
 62
     7
420
 16777215
370
    18
100
AcDbLine
 10
402.876779880233
 20
172.303338065547
 30
0.0
 11
400.155351308805
 21
172.303338065547
 31
0.0
  0
LINE
  5
298
330
170
100
AcDbEntity
  8
PROFILE
  6
AUSGEZOGEN
 62
     7
420
 16777215
370
    18
100
AcDbLine
 10
400.155351308805
 20
158.696195208404
 30
0.0
 11
400.155351308805
 21
172.303338065547
 31
0.0
  0
LINE
  5
299
330
170
100
AcDbEntity
  8
PROFILE
  6
AUSGEZOGEN
 62
     7
420
 16777215
370
    18
100
AcDbLine
 10
400.155351308805
 20
158.696195208404
 30
0.0
 11
370.219637023091
 21
158.696195208404
 31
0.0
  0
WIPEOUT
  5
29A
330
170
100
AcDbEntity
  8
PROFILE
  6
AUSGEZOGEN
 62
     7
420
 16777215
370
    18
 92
      308
310
34010000070000000C0000000E000000120000000C00000016000000000000C20C00000014000000010000006C0000000700000004000000F0C34919DA5577405EB7CB7EC36864400000000000000000385A4B688CBD78405EB7CB7EC36864400000000000000000385A4B688CBD7840F85065185D02654000000000000000
310
00F0C34919DA557740F85065185D02654000000000000000000C0000000E000000070000000C00000016000000FFFFFFC2840000000600000005000000F0C34919DA5577405EB7CB7EC36864400000000000000000385A4B688CBD78405EB7CB7EC36864400000000000000000385A4B688CBD7840F85065185D0265400000
310
000000000000F0C34919DA557740F85065185D0265400000000000000000F0C34919DA5577405EB7CB7EC36864400000000000000000
100
AcDbWipeout
 90
        0
 10
373.365746772905
 20
163.273864171871
 30
0.0
 11
22.48103237743317
 21
0.0
 31
0.0
 12
0.0
 22
22.48103237743317
 32
0.0
 13
1.0
 23
1.0
340
0
 70
     7
280
     1
281
    50
282
    50
283
     0
360
0
 71
     2
 91
        5
 14
-0.5
 24
0.5
 14
0.5
 24
0.5
 14
0.5
 24
0.28648667377
 14
-0.5
 24
0.28648667377
 14
-0.5
 24
0.5
  0
TEXT
  5
29B
330
170
100
AcDbEntity
  8
PROFILE
  6
AUSGEZOGEN
 62
     7
420
 16777215
370
    18
100
AcDbText
 10
373.365746772905
 20
164.173864171871
 30
0.0
 40
3.0
  1
In Feed View
 41
0.919921121918
  7
Lucida Calligraphy
 72
     5
 11
395.846779150339
 21
164.173864171871
 31
0.0
100
AcDbText
  0
WIPEOUT
  5
29C
330
170
100
AcDbEntity
  8
PROFILE
  6
AUSGEZOGEN
 62
     5
420
      255
370
    18
 92
      308
310
34010000070000000C0000000E000000120000000C00000016000000000000C20C00000014000000010000006C00000007000000040000005CE037596B6077407C3F9B78FECF62400000000000000000C246BEE2ACE278407C3F9B78FECF62400000000000000000C246BEE2ACE2784016D934129869634000000000000000
310
005CE037596B60774016D934129869634000000000000000000C0000000E000000050000000C00000016000000FF0000C28400000006000000050000005CE037596B6077407C3F9B78FECF62400000000000000000C246BEE2ACE278407C3F9B78FECF62400000000000000000C246BEE2ACE2784016D93412986963400000
310
0000000000005CE037596B60774016D934129869634000000000000000005CE037596B6077407C3F9B78FECF62400000000000000000
100
AcDbWipeout
 90
        0
 10
374.026208132045
 20
150.499813369006
 30
0.0
 11
24.14100029468534
 21
0.0
 31
0.0
 12
0.0
 22
24.14100029468534
 32
0.0
 13
1.0
 23
1.0
340
0
 70
     7
280
     1
281
    50
282
    50
283
     0
360
0
 71
     2
 91
        5
 14
-0.5
 24
0.5
 14
0.5
 24
0.5
 14
0.5
 24
0.301168139621
 14
-0.5
 24
0.301168139621
 14
-0.5
 24
0.5
  0
TEXT
  5
29D
330
170
100
AcDbEntity
  8
PROFILE
  6
AUSGEZOGEN
 62
     5
420
      255
370
    18
100
AcDbText
 10
374.026208132045
 20
151.399813369006
 30
0.0
 40
3.0
  1
Bed Plate
 41
1.329643109423
  7
Lucida Calligraphy
 72
     5
 11
398.16720842673
 21
151.399813369006
 31
0.0
100
AcDbText
  0
WIPEOUT
  5
29E
330
170
100
AcDbEntity
  8
PROFILE
  6
AUSGEZOGEN
 62
     5
420
      255
370
    18
 92
      308
310
34010000070000000C0000000E000000120000000C00000016000000000000C20C00000014000000010000006C00000007000000040000002E07B4DEE48479401E35B0B24691634000000000000000002E07B4DEE4847940B8CEC97BBD5765400000000000000000623AE71118387940B8CEC97BBD57654000000000000000
310
00623AE711183879401E35B0B24691634000000000000000000C0000000E000000050000000C00000016000000FF0000C28400000006000000050000002E07B4DEE48479401E35B0B24691634000000000000000002E07B4DEE4847940B8CEC97BBD5765400000000000000000623AE71118387940B8CEC97BBD5765400000
310
000000000000623AE711183879401E35B0B24691634000000000000000002E07B4DEE48479401E35B0B2469163400000000000000000
100
AcDbWipeout
 90
        0
 10
403.505876448855
 20
156.539880127101
 30
0.0
 11
14.20200018882753
 21
0.0
 31
0.0
 12
0.0
 22
14.20200018882753
 32
0.0
 13
1.0
 23
1.0
340
0
 70
     7
280
     1
281
    50
282
    50
283
     0
360
0
 71
     2
 91
        5
 14
-0.162019438376
 24
0.5
 14
-0.162019438376
 24
-0.5
 14
-0.5
 24
-0.5
 14
-0.5
 24
0.5
 14
-0.162019438376
 24
0.5
  0
TEXT
  5
29F
330
170
100
AcDbEntity
  8
PROFILE
  6
AUSGEZOGEN
 62
     5
420
      255
370
    18
100
AcDbText
 10
407.405876448855
 20
156.539880127101
 30
0.0
 40
3.0
  1
Fence
 50
90.0
 41
1.220417649637
  7
Lucida Calligraphy
 72
     5
 11
407.405876448855
 21
170.741880315929
 31
0.0
100
AcDbText
  0
INSERT
  5
2F8
330
170
100
AcDbEntity
  8
0
100
AcDbBlockReference
  2
*X11
 10
0.0
 20
0.0
 30
0.0
  0
HATCH
  5
2F9
330
170
100
AcDbEntity
  8
PROFILE
  6
AUSGEZOGEN
 62
     4
420
    65535
370
    18
100
AcDbHatch
 10
0.0
 20
0.0
 30
0.0
210
0.0
220
0.0
230
1.0
  2
MegaCAD_ansi36
 70
     0
 71
     0
 91
        1
 92
        2
 72
     1
 73
     1
 93
       44
 10
360.9465758320915
 20
173.024458167243
 42
0.0
 10
360.9465758320915
 20
180.2037281108387
 42
0.0
 10
360.8458829599416
 20
180.2001088853676
 42
0.0
 10
360.7451322908788
 20
180.1989022461426
 42
-0.0984914033571661
 10
359.135263828053
 20
180.5191249932531
 42
-0.0984914033571607
 10
357.7704832451984
 20
181.4310422241636
 42
-0.0984914033571665
 10
356.8585660142879
 20
182.7958228070182
 42
-0.0984914033571641
 10
356.5383432671774
 20
184.4056912698441
 42
0.0
 10
356.5385118803885
 20
184.4433557356033
 42
0.0
 10
356.5390177065053
 20
184.4810171820874
 42
0.0
 10
354.2394221627211
 20
184.4810171820874
 42
0.0492235911759739
 10
353.9229772500959
 20
185.0738694606152
 42
0.049223591175976
 10
353.4967523968393
 20
185.5934304111765
 42
0.098491403357165
 10
352.3867800018143
 20
186.3350902542122
 42
0.1989123673796614
 10
349.7681765782216
 20
186.3350902542122
 42
0.098491403357165
 10
348.6582041831966
 20
185.5934304111765
 42
0.0492235911759773
 10
348.23197932994
 20
185.0738694606152
 42
0.0492235911759752
 10
347.9155344173148
 20
184.4810171820874
 42
0.0
 10
345.0410399875846
 20
184.4810171820874
 42
-0.0753590618188311
 10
344.5084007143586
 20
182.9465147834362
 42
-0.0753590618188328
 10
343.5449396147178
 20
181.6387896914051
 42
-0.0984914033571632
 10
341.7868277461487
 20
180.4640568977548
 42
-0.0984914033571653
 10
339.7129933973266
 20
180.0515455978774
 42
-0.0812802989469185
 10
337.9856385765079
 20
180.3342128679687
 42
-0.0812802989469214
 10
336.4384828790514
 20
181.1527265883266
 42
0.0
 10
328.873358543745
 20
186.8896477873126
 42
0.0812802989469212
 10
326.9314082598138
 20
187.9170252867225
 42
0.0812802989469194
 10
324.7632766423861
 20
188.2718220187608
 42
0.0984914033571652
 10
322.1602527779218
 20
187.7540483795344
 42
0.0984914033571638
 10
319.9535157003519
 20
186.2795538047978
 42
0.0853848003036436
 10
318.6227716065453
 20
184.3958479791016
 42
0.0853848003036436
 10
317.9979803324765
 20
182.1757436246149
 42
0.0
 10
314.9254925034196
 20
182.1757436246149
 42
0.0
 10
314.7954868512645
 20
184.656399243565
 42
-0.0811650728785666
 10
313.3394696561635
 20
185.1059573942547
 42
-0.0811650728785657
 10
312.1022871109467
 20
185.9956022408603
 42
-0.0868156614866661
 10
311.1664987805817
 20
187.3282539614995
 42
-0.0868156614866646
 10
310.7387397928046
 20
188.899458167243
 42
0.0
 10
259.3465758320915
 20
188.899458167243
 42
0.0
 10
259.3465758320915
 20
173.024458167243
 42
0.0
 10
284.7465758320915
 20
173.024458167243
 42
0.0
 10
286.3213758320915
 20
174.599258167243
 42
0.0
 10
333.9717758320916
 20
174.599258167243
 42
0.0
 10
335.5465758320915
 20
173.024458167243
 42
0.0
 97
        0
 75
     0
 76
     1
 52
0.0
 41
1.0
 77
     0
 78
     1
 53
45.0
 43
0.0
 44
0.0
 45
0.6629126073623884
 46
2.430679560328757
 79
     4
 49
3.125
 49
-0.625
 49
0.0
 49
-0.625
 98
        0
  0
ENDBLK
  5
172
330
170
100
AcDbEntity
  8
0
100
AcDbBlockEnd
  0
BLOCK
  5
1BB
330
1BA
100
AcDbEntity
  8
0
100
AcDbBlockBegin
  2
DimBlk_nNn01
 70
     0
 10
0.0
 20
0.0
 30
0.0
  3
DimBlk_nNn01
  1
DimBlk_nNn01
  0
LINE
  5
1BD
330
1BA
100
AcDbEntity
  8
PROFILE
  6
AUSGEZOGEN
 62
     7
420
 16777215
370
    18
100
AcDbLine
 10
315.963021151587
 20
107.042039972476
 30
0.0
 11
316.952970645249
 21
108.031989466137
 31
0.0
  0
LINE
  5
1BE
330
1BA
100
AcDbEntity
  8
PROFILE
  6
AUSGEZOGEN
 62
     7
420
 16777215
370
    18
100
AcDbLine
 10
315.963021151587
 20
107.042039972476
 30
0.0
 11
313.983122164265
 21
110.01188845346
 31
0.0
  0
LINE
  5
1BF
330
1BA
100
AcDbEntity
  8
PROFILE
  6
AUSGEZOGEN
 62
     7
420
 16777215
370
    18
100
AcDbLine
 10
313.983122164265
 20
110.01188845346
 30
0.0
 11
316.952970645249
 21
108.031989466137
 31
0.0
  0
LINE
  5
1C0
330
1BA
100
AcDbEntity
  8
PROFILE
  6
AUSGEZOGEN
 62
     7
420
 16777215
370
    18
100
AcDbLine
 10
313.983122164265
 20
110.01188845346
 30
0.0
 11
318.464295747569
 21
105.530714870156
 31
0.0
  0
WIPEOUT
  5
1C1
330
1BA
100
AcDbEntity
  8
PROFILE
  6
AUSGEZOGEN
 62
     7
420
 16777215
370
    18
 92
      308
310
34010000070000000C0000000E000000120000000C00000016000000000000C20C00000014000000010000006C000000070000000400000067D101507229734046814D08C4CE58400000000000000000016BBBE5B53F744046814D08C4CE58400000000000000000016BBBE5B53F7440ACE7B36E2A355A4000000000000000
310
0067D1015072297340ACE7B36E2A355A4000000000000000000C0000000E000000070000000C00000016000000FFFFFFC284000000060000000500000067D101507229734046814D08C4CE58400000000000000000016BBBE5B53F744046814D08C4CE58400000000000000000016BBBE5B53F7440ACE7B36E2A355A400000
310
00000000000067D1015072297340ACE7B36E2A355A40000000000000000067D101507229734046814D08C4CE58400000000000000000
100
AcDbWipeout
 90
        0
 10
306.590408331968
 20
99.230714870156
 30
0.0
 11
17.39150021076205
 21
0.0
 31
0.0
 12
0.0
 22
17.39150021076205
 32
0.0
 13
1.0
 23
1.0
340
0
 70
     7
280
     1
281
    50
282
    50
283
     0
360
0
 71
     2
 91
        5
 14
-0.5
 24
0.5
 14
0.5
 24
0.5
 14
0.5
 24
0.178003626361
 14
-0.5
 24
0.178003626361
 14
-0.5
 24
0.5
  0
TEXT
  5
1C2
330
1BA
100
AcDbEntity
  8
PROFILE
  6
AUSGEZOGEN
 62
     7
420
 16777215
370
    18
100
AcDbText
 10
306.590408331968
 20
100.280714870156
 30
0.0
 40
3.5
  1
0.186
 41
1.36569303082
  7
Arial
 72
     5
 11
323.281908554651
 21
100.280714870156
 31
0.0
100
AcDbText
  0
LINE
  5
1C3
330
1BA
100
AcDbEntity
  8
PROFILE
  6
AUSGEZOGEN
 62
     7
420
 16777215
370
    18
100
AcDbLine
 10
324.714295747569
 20
99.280714870156
 30
0.0
 11
306.240408337928
 21
99.280714870156
 31
0.0
  0
ENDBLK
  5
1BC
330
1BA
100
AcDbEntity
  8
0
100
AcDbBlockEnd
  0
BLOCK
  5
1C6
330
1C5
100
AcDbEntity
  8
0
100
AcDbBlockBegin
  2
DimBlk_nNn02
 70
     0
 10
0.0
 20
0.0
 30
0.0
  3
DimBlk_nNn02
  1
DimBlk_nNn02
  0
LINE
  5
1C8
330
1C5
100
AcDbEntity
  8
PROFILE
  6
AUSGEZOGEN
 62
     7
420
 16777215
370
    18
100
AcDbLine
 10
326.765282936828
 20
111.164462874222
 30
0.0
 11
325.386179172449
 21
111.405445875855
 31
0.0
  0
LINE
  5
1C9
330
1C5
100
AcDbEntity
  8
PROFILE
  6
AUSGEZOGEN
 62
     7
420
 16777215
370
    18
100
AcDbLine
 10
326.765282936828
 20
111.164462874222
 30
0.0
 11
325.473273550557
 21
107.837194964092
 31
0.0
  0
LINE
  5
1CA
330
1C5
100
AcDbEntity
  8
PROFILE
  6
AUSGEZOGEN
 62
     7
420
 16777215
370
    18
100
AcDbLine
 10
325.473273550557
 20
107.837194964092
 30
0.0
 11
325.386179172449
 21
111.405445875855
 31
0.0
  0
LINE
  5
1CB
330
1C5
100
AcDbEntity
  8
PROFILE
  6
AUSGEZOGEN
 62
     7
420
 16777215
370
    18
100
AcDbLine
 10
325.473273550557
 20
107.837194964092
 30
0.0
 11
326.553347377925
 21
114.018269442528
 31
0.0
  0
WIPEOUT
  5
1CC
330
1C5
100
AcDbEntity
  8
PROFILE
  6
AUSGEZOGEN
 62
     7
420
 16777215
370
    18
 92
      308
310
34010000070000000C0000000E000000120000000C00000016000000000000C20C00000014000000010000006C000000070000000400000088CDEE8DA2057440CF576520F8AD5C4000000000000000002267A823E61B7540CF576520F8AD5C4000000000000000002267A823E61B754035BECB865E145E4000000000000000
310
0088CDEE8DA205744035BECB865E145E4000000000000000000C0000000E000000070000000C00000016000000FFFFFFC284000000060000000500000088CDEE8DA2057440CF576520F8AD5C4000000000000000002267A823E61B7540CF576520F8AD5C4000000000000000002267A823E61B754035BECB865E145E400000
310
00000000000088CDEE8DA205744035BECB865E145E40000000000000000088CDEE8DA2057440CF576520F8AD5C400000000000000000
100
AcDbWipeout
 90
        0
 10
320.352186138939
 20
114.718269442528
 30
0.0
 11
17.39150021076205
 21
0.0
 31
0.0
 12
0.0
 22
17.39150021076205
 32
0.0
 13
1.0
 23
1.0
340
0
 70
     7
280
     1
281
    50
282
    50
283
     0
360
0
 71
     2
 91
        5
 14
-0.5
 24
0.5
 14
0.5
 24
0.5
 14
0.5
 24
0.178003626361
 14
-0.5
 24
0.178003626361
 14
-0.5
 24
0.5
  0
TEXT
  5
1CD
330
1C5
100
AcDbEntity
  8
PROFILE
  6
AUSGEZOGEN
 62
     7
420
 16777215
370
    18
100
AcDbText
 10
320.352186138939
 20
115.768269442528
 30
0.0
 40
3.5
  1
0.268
 41
1.36569303082
  7
Arial
 72
     5
 11
337.043686361622
 21
115.768269442528
 31
0.0
100
AcDbText
  0
LINE
  5
1CE
330
1C5
100
AcDbEntity
  8
PROFILE
  6
AUSGEZOGEN
 62
     7
420
 16777215
370
    18
100
AcDbLine
 10
326.684401513148
 20
114.768269442528
 30
0.0
 11
320.002186144899
 21
114.768269442528
 31
0.0
  0
ENDBLK
  5
1C7
330
1C5
100
AcDbEntity
  8
0
100
AcDbBlockEnd
  0
BLOCK
  5
1D1
330
1D0
100
AcDbEntity
  8
0
100
AcDbBlockBegin
  2
DimBlk_nNn03
 70
     0
 10
0.0
 20
0.0
 30
0.0
  3
DimBlk_nNn03
  1
DimBlk_nNn03
  0
LINE
  5
1D3
330
1D0
100
AcDbEntity
  8
PROFILE
  6
AUSGEZOGEN
 62
     7
420
 16777215
370
    18
100
AcDbLine
 10
341.156278254447
 20
112.532209940452
 30
0.0
 11
342.543749209017
 21
112.345329363012
 31
0.0
  0
LINE
  5
1D4
330
1D0
100
AcDbEntity
  8
PROFILE
  6
AUSGEZOGEN
 62
     7
420
 16777215
370
    18
100
AcDbLine
 10
341.156278254447
 20
112.532209940452
 30
0.0
 11
342.317215175332
 21
115.907447038158
 31
0.0
  0
LINE
  5
1D5
330
1D0
100
AcDbEntity
  8
PROFILE
  6
AUSGEZOGEN
 62
     7
420
 16777215
370
    18
100
AcDbLine
 10
342.317215175332
 20
115.907447038158
 30
0.0
 11
342.543749209017
 21
112.345329363012
 31
0.0
  0
LINE
  5
1D6
330
1D0
100
AcDbEntity
  8
PROFILE
  6
AUSGEZOGEN
 62
     7
420
 16777215
370
    18
100
AcDbLine
 10
342.317215175332
 20
115.907447038158
 30
0.0
 11
341.112709372519
 21
106.964747700931
 31
0.0
  0
WIPEOUT
  5
1D7
330
1D0
100
AcDbEntity
  8
PROFILE
  6
AUSGEZOGEN
 62
     7
420
 16777215
370
    18
 92
      308
310
34010000070000000C0000000E000000120000000C00000016000000000000C20C00000014000000010000006C0000000700000004000000A08A60BCC6AA7440BBE5F0398B2A594000000000000000003A241A520AC17540BBE5F0398B2A594000000000000000003A241A520AC17540214C57A0F1905A4000000000000000
310
00A08A60BCC6AA7440214C57A0F1905A4000000000000000000C0000000E000000070000000C00000016000000FFFFFFC2840000000600000005000000A08A60BCC6AA7440BBE5F0398B2A594000000000000000003A241A520AC17540BBE5F0398B2A594000000000000000003A241A520AC17540214C57A0F1905A400000
310
000000000000A08A60BCC6AA7440214C57A0F1905A400000000000000000A08A60BCC6AA7440BBE5F0398B2A59400000000000000000
100
AcDbWipeout
 90
        0
 10
330.673519494167
 20
100.664747700931
 30
0.0
 11
17.39150021076205
 21
0.0
 31
0.0
 12
0.0
 22
17.39150021076205
 32
0.0
 13
1.0
 23
1.0
340
0
 70
     7
280
     1
281
    50
282
    50
283
     0
360
0
 71
     2
 91
        5
 14
-0.5
 24
0.5
 14
0.5
 24
0.5
 14
0.5
 24
0.178003626361
 14
-0.5
 24
0.178003626361
 14
-0.5
 24
0.5
  0
TEXT
  5
1D8
330
1D0
100
AcDbEntity
  8
PROFILE
  6
AUSGEZOGEN
 62
     7
420
 16777215
370
    18
100
AcDbText
 10
330.673519494167
 20
101.714747700931
 30
0.0
 40
3.5
  1
0.213
 41
1.36569303082
  7
Arial
 72
     5
 11
347.36501971685
 21
101.714747700931
 31
0.0
100
AcDbText
  0
LINE
  5
1D9
330
1D0
100
AcDbEntity
  8
PROFILE
  6
AUSGEZOGEN
 62
     7
420
 16777215
370
    18
100
AcDbLine
 10
340.270887347235
 20
100.714747700931
 30
0.0
 11
330.323519500127
 21
100.714747700931
 31
0.0
  0
ENDBLK
  5
1D2
330
1D0
100
AcDbEntity
  8
0
100
AcDbBlockEnd
  0
BLOCK
  5
1DC
330
1DB
100
AcDbEntity
  8
0
100
AcDbBlockBegin
  2
DimBlk_nNn04
 70
     0
 10
0.0
 20
0.0
 30
0.0
  3
DimBlk_nNn04
  1
DimBlk_nNn04
  0
LINE
  5
1DE
330
1DB
100
AcDbEntity
  8
PROFILE
  6
AUSGEZOGEN
 62
     7
420
 16777215
370
    18
100
AcDbLine
 10
352.958313343336
 20
112.833334389965
 30
0.0
 11
353.910462599202
 21
109.547122862624
 31
0.0
  0
LINE
  5
1DF
330
1DB
100
AcDbEntity
  8
PROFILE
  6
AUSGEZOGEN
 62
     7
420
 16777215
370
    18
100
AcDbLine
 10
354.212147085263
 20
105.990581499042
 30
0.0
 11
355.55684111079
 21
106.380194098572
 31
0.0
  0
LINE
  5
1E0
330
1DB
100
AcDbEntity
  8
PROFILE
  6
AUSGEZOGEN
 62
     7
420
 16777215
370
    18
100
AcDbLine
 10
354.212147085263
 20
105.990581499042
 30
0.0
 11
353.910462599202
 21
109.547122862624
 31
0.0
  0
LINE
  5
1E1
330
1DB
100
AcDbEntity
  8
PROFILE
  6
AUSGEZOGEN
 62
     7
420
 16777215
370
    18
100
AcDbLine
 10
353.910462599202
 20
109.547122862624
 30
0.0
 11
355.55684111079
 21
106.380194098572
 31
0.0
  0
LINE
  5
1E2
330
1DB
100
AcDbEntity
  8
PROFILE
  6
AUSGEZOGEN
 62
     7
420
 16777215
370
    18
100
AcDbLine
 10
353.910462599202
 20
109.547122862624
 30
0.0
 11
354.949530189665
 21
105.960924719388
 31
0.0
  0
WIPEOUT
  5
1E3
330
1DB
100
AcDbEntity
  8
PROFILE
  6
AUSGEZOGEN
 62
     7
420
 16777215
370
    18
 92
      308
310
34010000070000000C0000000E000000120000000C00000016000000000000C20C00000014000000010000006C0000000700000004000000D00444190FF5754003B931974CEA584000000000000000006A9EFDAE520B774003B931974CEA584000000000000000006A9EFDAE520B7740691F98FDB2505A4000000000000000
310
00D00444190FF57540691F98FDB2505A4000000000000000000C0000000E000000070000000C00000016000000FFFFFFC2840000000600000005000000D00444190FF5754003B931974CEA584000000000000000006A9EFDAE520B774003B931974CEA584000000000000000006A9EFDAE520B7740691F98FDB2505A400000
310
000000000000D00444190FF57540691F98FDB2505A400000000000000000D00444190FF5754003B931974CEA58400000000000000000
100
AcDbWipeout
 90
        0
 10
351.316186204623
 20
99.660924719388
 30
0.0
 11
17.39150021076205
 21
0.0
 31
0.0
 12
0.0
 22
17.39150021076205
 32
0.0
 13
1.0
 23
1.0
340
0
 70
     7
280
     1
281
    50
282
    50
283
     0
360
0
 71
     2
 91
        5
 14
-0.5
 24
0.5
 14
0.5
 24
0.5
 14
0.5
 24
0.178003626361
 14
-0.5
 24
0.178003626361
 14
-0.5
 24
0.5
  0
TEXT
  5
1E4
330
1DB
100
AcDbEntity
  8
PROFILE
  6
AUSGEZOGEN
 62
     7
420
 16777215
370
    18
100
AcDbText
 10
351.316186204623
 20
100.710924719388
 30
0.0
 40
3.5
  1
0.135
 41
1.36569303082
  7
Arial
 72
     5
 11
368.007686427306
 21
100.710924719388
 31
0.0
100
AcDbText
  0
LINE
  5
1E5
330
1DB
100
AcDbEntity
  8
PROFILE
  6
AUSGEZOGEN
 62
     7
420
 16777215
370
    18
100
AcDbLine
 10
356.76040961713
 20
99.710924719388
 30
0.0
 11
350.966186210583
 21
99.710924719388
 31
0.0
  0
ENDBLK
  5
1DD
330
1DB
100
AcDbEntity
  8
0
100
AcDbBlockEnd
  0
BLOCK
  5
1E8
330
1E7
100
AcDbEntity
  8
0
100
AcDbBlockBegin
  2
DimBlk_nNn05
 70
     0
 10
0.0
 20
0.0
 30
0.0
  3
DimBlk_nNn05
  1
DimBlk_nNn05
  0
LINE
  5
1EA
330
1E7
100
AcDbEntity
  8
PROFILE
  6
AUSGEZOGEN
 62
     7
420
 16777215
370
    18
100
AcDbLine
 10
361.631217285839
 20
111.606599989173
 30
0.0
 11
362.6211667795
 21
112.596549482834
 31
0.0
  0
LINE
  5
1EB
330
1E7
100
AcDbEntity
  8
PROFILE
  6
AUSGEZOGEN
 62
     7
420
 16777215
370
    18
100
AcDbLine
 10
361.631217285839
 20
111.606599989173
 30
0.0
 11
359.651318298517
 21
114.576448470156
 31
0.0
  0
LINE
  5
1EC
330
1E7
100
AcDbEntity
  8
PROFILE
  6
AUSGEZOGEN
 62
     7
420
 16777215
370
    18
100
AcDbLine
 10
359.651318298517
 20
114.576448470156
 30
0.0
 11
362.6211667795
 21
112.596549482834
 31
0.0
  0
LINE
  5
1ED
330
1E7
100
AcDbEntity
  8
PROFILE
  6
AUSGEZOGEN
 62
     7
420
 16777215
370
    18
100
AcDbLine
 10
359.651318298517
 20
114.576448470156
 30
0.0
 11
361.782741767841
 21
112.445025000832
 31
0.0
  0
WIPEOUT
  5
1EE
330
1E7
100
AcDbEntity
  8
PROFILE
  6
AUSGEZOGEN
 62
     7
420
 16777215
370
    18
 92
      308
310
34010000070000000C0000000E000000120000000C00000016000000000000C20C00000014000000010000006C00000007000000040000006C61734FB9B57640FBC5D759DB3E5B40000000000000000006FB2CE5FCCB7740FBC5D759DB3E5B40000000000000000006FB2CE5FCCB7740612C3EC041A55C4000000000000000
310
006C61734FB9B57640612C3EC041A55C4000000000000000000C0000000E000000070000000C00000016000000FFFFFFC28400000006000000050000006C61734FB9B57640FBC5D759DB3E5B40000000000000000006FB2CE5FCCB7740FBC5D759DB3E5B40000000000000000006FB2CE5FCCB7740612C3EC041A55C400000
310
0000000000006C61734FB9B57640612C3EC041A55C4000000000000000006C61734FB9B57640FBC5D759DB3E5B400000000000000000
100
AcDbWipeout
 90
        0
 10
363.357741785722
 20
108.982138119427
 30
0.0
 11
17.39150021076205
 21
0.0
 31
0.0
 12
0.0
 22
17.39150021076205
 32
0.0
 13
1.0
 23
1.0
340
0
 70
     7
280
     1
281
    50
282
    50
283
     0
360
0
 71
     2
 91
        5
 14
-0.5
 24
0.5
 14
0.5
 24
0.5
 14
0.5
 24
0.178003626361
 14
-0.5
 24
0.178003626361
 14
-0.5
 24
0.5
  0
TEXT
  5
1EF
330
1E7
100
AcDbEntity
  8
PROFILE
  6
AUSGEZOGEN
 62
     7
420
 16777215
370
    18
100
AcDbText
 10
363.357741785722
 20
110.032138119427
 30
0.0
 40
3.5
  1
0.166
 41
1.36569303082
  7
Arial
 72
     5
 11
380.049242008405
 21
110.032138119427
 31
0.0
100
AcDbText
  0
LINE
  5
1F0
330
1E7
100
AcDbEntity
  8
PROFILE
  6
AUSGEZOGEN
 62
     7
420
 16777215
370
    18
100
AcDbLine
 10
365.195628649246
 20
109.032138119427
 30
0.0
 11
363.007741791683
 21
109.032138119427
 31
0.0
  0
ENDBLK
  5
1E9
330
1E7
100
AcDbEntity
  8
0
100
AcDbBlockEnd
  0
BLOCK
  5
1F3
330
1F2
100
AcDbEntity
  8
0
100
AcDbBlockBegin
  2
DimBlk_nNn06
 70
     0
 10
0.0
 20
0.0
 30
0.0
  3
DimBlk_nNn06
  1
DimBlk_nNn06
  0
LINE
  5
1F5
330
1F2
100
AcDbEntity
  8
PROFILE
  6
AUSGEZOGEN
 62
     7
420
 16777215
370
    18
100
AcDbLine
 10
264.72741088541
 20
112.921043177907
 30
0.0
 11
264.72741088541
 21
114.321043177907
 31
0.0
  0
LINE
  5
1F6
330
1F2
100
AcDbEntity
  8
PROFILE
  6
AUSGEZOGEN
 62
     7
420
 16777215
370
    18
100
AcDbLine
 10
264.72741088541
 20
112.921043177907
 30
0.0
 11
261.22741088541
 21
113.621043177907
 31
0.0
  0
LINE
  5
1F7
330
1F2
100
AcDbEntity
  8
PROFILE
  6
AUSGEZOGEN
 62
     7
420
 16777215
370
    18
100
AcDbLine
 10
261.22741088541
 20
113.621043177907
 30
0.0
 11
264.72741088541
 21
114.321043177907
 31
0.0
  0
LINE
  5
1F8
330
1F2
100
AcDbEntity
  8
PROFILE
  6
AUSGEZOGEN
 62
     7
420
 16777215
370
    18
100
AcDbLine
 10
309.119574846123
 20
114.321043177907
 30
0.0
 11
309.119574846123
 21
112.921043177907
 31
0.0
  0
LINE
  5
1F9
330
1F2
100
AcDbEntity
  8
PROFILE
  6
AUSGEZOGEN
 62
     7
420
 16777215
370
    18
100
AcDbLine
 10
309.119574846123
 20
114.321043177907
 30
0.0
 11
312.619574846123
 21
113.621043177907
 31
0.0
  0
LINE
  5
1FA
330
1F2
100
AcDbEntity
  8
PROFILE
  6
AUSGEZOGEN
 62
     7
420
 16777215
370
    18
100
AcDbLine
 10
312.619574846123
 20
113.621043177907
 30
0.0
 11
309.119574846123
 21
112.921043177907
 31
0.0
  0
LINE
  5
1FB
330
1F2
100
AcDbEntity
  8
PROFILE
  6
AUSGEZOGEN
 62
     7
420
 16777215
370
    18
100
AcDbLine
 10
312.619574846123
 20
113.621043177907
 30
0.0
 11
261.22741088541
 21
113.621043177907
 31
0.0
  0
LINE
  5
1FC
330
1F2
100
AcDbEntity
  8
PROFILE
  6
AUSGEZOGEN
 62
     5
420
      255
370
    18
100
AcDbLine
 10
312.619574846123
 20
111.621043177907
 30
0.0
 11
312.619574846123
 21
115.621043177907
 31
0.0
  0
LINE
  5
1FD
330
1F2
100
AcDbEntity
  8
PROFILE
  6
AUSGEZOGEN
 62
     5
420
      255
370
    18
100
AcDbLine
 10
261.22741088541
 20
115.621043177907
 30
0.0
 11
261.22741088541
 21
111.621043177907
 31
0.0
  0
WIPEOUT
  5
1FE
330
1F2
100
AcDbEntity
  8
PROFILE
  6
AUSGEZOGEN
 62
     7
420
 16777215
370
    18
 92
      308
310
34010000070000000C0000000E000000120000000C00000016000000000000C20C00000014000000010000006C000000070000000400000017BC2F6F3E697140D86DAFF88B645C400000000000000000B155E904827F7240D86DAFF88B645C400000000000000000B155E904827F72403ED4155FF2CA5D4000000000000000
310
0017BC2F6F3E6971403ED4155FF2CA5D4000000000000000000C0000000E000000070000000C00000016000000FFFFFFC284000000060000000500000017BC2F6F3E697140D86DAFF88B645C400000000000000000B155E904827F7240D86DAFF88B645C400000000000000000B155E904827F72403ED4155FF2CA5D400000
310
00000000000017BC2F6F3E6971403ED4155FF2CA5D40000000000000000017BC2F6F3E697140D86DAFF88B645C400000000000000000
100
AcDbWipeout
 90
        0
 10
278.577742754425
 20
113.571043177907
 30
0.0
 11
17.39150021076205
 21
0.0
 31
0.0
 12
0.0
 22
17.39150021076205
 32
0.0
 13
1.0
 23
1.0
340
0
 70
     7
280
     1
281
    50
282
    50
283
     0
360
0
 71
     2
 91
        5
 14
-0.5
 24
0.5
 14
0.5
 24
0.5
 14
0.5
 24
0.178003626361
 14
-0.5
 24
0.178003626361
 14
-0.5
 24
0.5
  0
TEXT
  5
1FF
330
1F2
100
AcDbEntity
  8
PROFILE
  6
AUSGEZOGEN
 62
     7
420
 16777215
370
    18
100
AcDbText
 10
278.577742754425
 20
114.621043177907
 30
0.0
 40
3.5
  1
2.023
 41
1.36569303082
  7
Arial
 72
     5
 11
295.269242977108
 21
114.621043177907
 31
0.0
100
AcDbText
  0
ENDBLK
  5
1F4
330
1F2
100
AcDbEntity
  8
0
100
AcDbBlockEnd
  0
BLOCK
  5
207
330
206
100
AcDbEntity
  8
0
100
AcDbBlockBegin
  2
DimBlk_nNn07
 70
     0
 10
0.0
 20
0.0
 30
0.0
  3
DimBlk_nNn07
  1
DimBlk_nNn07
  0
LWPOLYLINE
  5
209
330
206
100
AcDbEntity
  8
PROFILE
  6
AUSGEZOGEN
 62
     3
420
    65280
370
    18
100
AcDbPolyline
 90
        3
 70
     1
 43
0.0
 10
261.22741088541
 20
126.731471094542
 10
264.72741088541
 20
126.031471094542
 10
264.72741088541
 20
127.431471094542
  0
LWPOLYLINE
  5
20A
330
206
100
AcDbEntity
  8
PROFILE
  6
AUSGEZOGEN
 62
     3
420
    65280
370
    18
100
AcDbPolyline
 90
        3
 70
     1
 43
0.0
 10
362.82741088541
 20
126.731471094542
 10
359.32741088541
 20
127.431471094542
 10
359.32741088541
 20
126.031471094542
  0
LINE
  5
20B
330
206
100
AcDbEntity
  8
PROFILE
  6
AUSGEZOGEN
 62
     3
420
    65280
370
    18
100
AcDbLine
 10
359.32741088541
 20
126.731471094542
 30
0.0
 11
264.72741088541
 21
126.731471094542
 31
0.0
  0
LINE
  5
20C
330
206
100
AcDbEntity
  8
PROFILE
  6
AUSGEZOGEN
 62
     3
420
    65280
370
    18
100
AcDbLine
 10
362.82741088541
 20
124.731471094542
 30
0.0
 11
362.82741088541
 21
128.731471094542
 31
0.0
  0
LINE
  5
20D
330
206
100
AcDbEntity
  8
PROFILE
  6
AUSGEZOGEN
 62
     3
420
    65280
370
    18
100
AcDbLine
 10
261.22741088541
 20
124.731471094542
 30
0.0
 11
261.22741088541
 21
128.731471094542
 31
0.0
  0
WIPEOUT
  5
20E
330
206
100
AcDbEntity
  8
PROFILE
  6
AUSGEZOGEN
 62
     3
420
    65280
370
    18
 92
      308
310
34010000070000000C0000000E000000120000000C00000016000000000000C20C00000014000000010000006C0000000700000004000000D61F4F19BE6773406D0EF0389DAB5F400000000000000000A3ECABA655A473406D0EF0389DAB5F400000000000000000A3ECABA655A473406A3AABCF0189604000000000000000
310
00D61F4F19BE6773406A3AABCF0189604000000000000000000C0000000E000000030000000C0000001600000000FF00C2840000000600000005000000D61F4F19BE6773406D0EF0389DAB5F400000000000000000A3ECABA655A473406D0EF0389DAB5F400000000000000000A3ECABA655A473406A3AABCF018960400000
310
000000000000D61F4F19BE6773406A3AABCF018960400000000000000000D61F4F19BE6773406D0EF0389DAB5F400000000000000000
100
AcDbWipeout
 90
        0
 10
310.483910855369
 20
126.681471094542
 30
0.0
 11
5.599999999999994
 21
0.0
 31
0.0
 12
0.0
 22
5.599999999999994
 32
0.0
 13
1.0
 23
1.0
340
0
 70
     7
280
     1
281
    50
282
    50
283
     0
360
0
 71
     2
 91
        5
 14
-0.5
 24
0.5
 14
0.1762500086
 24
0.5
 14
0.1762500086
 24
-0.5
 14
-0.5
 24
-0.5
 14
-0.5
 24
0.5
  0
TEXT
  5
20F
330
206
100
AcDbEntity
  8
PROFILE
  6
AUSGEZOGEN
 62
     3
420
    65280
370
    18
100
AcDbText
 10
310.483910855369
 20
127.731471094542
 30
0.0
 40
3.5
  1
4
 41
1.136597960266
  7
Arial
 72
     5
 11
313.570910915451
 21
127.731471094542
 31
0.0
100
AcDbText
  0
ENDBLK
  5
208
330
206
100
AcDbEntity
  8
0
100
AcDbBlockEnd
  0
BLOCK
  5
212
330
211
100
AcDbEntity
  8
0
100
AcDbBlockBegin
  2
DimBlk_nNn08
 70
     0
 10
0.0
 20
0.0
 30
0.0
  3
DimBlk_nNn08
  1
DimBlk_nNn08
  0
LWPOLYLINE
  5
214
330
211
100
AcDbEntity
  8
PROFILE
  6
AUSGEZOGEN
 62
     3
420
    65280
370
    18
100
AcDbPolyline
 90
        3
 70
     1
 43
0.0
 10
254.170993637309
 20
107.108032527077
 10
254.870993637309
 20
110.608032527077
 10
253.470993637309
 20
110.608032527077
  0
LWPOLYLINE
  5
215
330
211
100
AcDbEntity
  8
PROFILE
  6
AUSGEZOGEN
 62
     3
420
    65280
370
    18
100
AcDbPolyline
 90
        3
 70
     1
 43
0.0
 10
254.170993637309
 20
122.983032527077
 10
253.470993637309
 20
119.483032527077
 10
254.870993637309
 20
119.483032527077
  0
LINE
  5
216
330
211
100
AcDbEntity
  8
PROFILE
  6
AUSGEZOGEN
 62
     3
420
    65280
370
    18
100
AcDbLine
 10
254.170993637309
 20
119.483032527077
 30
0.0
 11
254.170993637309
 21
110.608032527077
 31
0.0
  0
LINE
  5
217
330
211
100
AcDbEntity
  8
PROFILE
  6
AUSGEZOGEN
 62
     3
420
    65280
370
    18
100
AcDbLine
 10
256.170993637309
 20
122.983032527077
 30
0.0
 11
252.170993637309
 21
122.983032527077
 31
0.0
  0
LINE
  5
218
330
211
100
AcDbEntity
  8
PROFILE
  6
AUSGEZOGEN
 62
     3
420
    65280
370
    18
100
AcDbLine
 10
256.170993637309
 20
107.108032527077
 30
0.0
 11
252.170993637309
 21
107.108032527077
 31
0.0
  0
WIPEOUT
  5
219
330
211
100
AcDbEntity
  8
PROFILE
  6
AUSGEZOGEN
 62
     3
420
    65280
370
    18
 92
      308
310
34010000070000000C0000000E000000120000000C00000016000000000000C20C00000014000000010000006C0000000700000004000000BF9B3F6112C76F4088792F3CC9AC5A400000000000000000BF9B3F6112C76F40F0DF1593D7055F4000000000000000008C680C2EDF136F40F0DF1593D7055F4000000000000000
310
008C680C2EDF136F4088792F3CC9AC5A4000000000000000000C0000000E000000030000000C0000001600000000FF00C2840000000600000005000000BF9B3F6112C76F4088792F3CC9AC5A400000000000000000BF9B3F6112C76F40F0DF1593D7055F4000000000000000008C680C2EDF136F40F0DF1593D7055F400000
310
0000000000008C680C2EDF136F4088792F3CC9AC5A400000000000000000BF9B3F6112C76F4088792F3CC9AC5A400000000000000000
100
AcDbWipeout
 90
        0
 10
248.620993637309
 20
106.699782415735
 30
0.0
 11
17.39150021076203
 21
0.0
 31
0.0
 12
0.0
 22
17.39150021076203
 32
0.0
 13
1.0
 23
1.0
340
0
 70
     7
280
     1
281
    50
282
    50
283
     0
360
0
 71
     2
 91
        5
 14
-0.178003626361
 24
0.5
 14
-0.178003626361
 24
-0.5
 14
-0.5
 24
-0.5
 14
-0.5
 24
0.5
 14
-0.178003626361
 24
0.5
  0
TEXT
  5
21A
330
211
100
AcDbEntity
  8
PROFILE
  6
AUSGEZOGEN
 62
     3
420
    65280
370
    18
100
AcDbText
 10
253.170993637309
 20
106.699782415735
 30
0.0
 40
3.5
  1
0.625
 50
90.0
 41
1.36569303082
  7
Arial
 72
     5
 11
253.170993637309
 21
123.391282638418
 31
0.0
100
AcDbText
  0
ENDBLK
  5
213
330
211
100
AcDbEntity
  8
0
100
AcDbBlockEnd
  0
BLOCK
  5
21D
330
21C
100
AcDbEntity
  8
0
100
AcDbBlockBegin
  2
DimBlk_nNn09
 70
     0
 10
0.0
 20
0.0
 30
0.0
  3
DimBlk_nNn09
  1
DimBlk_nNn09
  0
LWPOLYLINE
  5
21F
330
21C
100
AcDbEntity
  8
PROFILE
  6
AUSGEZOGEN
 62
     3
420
    65280
370
    18
100
AcDbPolyline
 90
        3
 70
     1
 43
0.0
 10
389.238930133756
 20
107.108032527077
 10
388.538930133756
 20
103.608032527077
 10
389.938930133756
 20
103.608032527077
  0
LWPOLYLINE
  5
220
330
21C
100
AcDbEntity
  8
PROFILE
  6
AUSGEZOGEN
 62
     3
420
    65280
370
    18
100
AcDbPolyline
 90
        3
 70
     1
 43
0.0
 10
389.238930133756
 20
115.955945096442
 10
389.938930133756
 20
119.455945096442
 10
388.538930133756
 20
119.455945096442
  0
LINE
  5
221
330
21C
100
AcDbEntity
  8
PROFILE
  6
AUSGEZOGEN
 62
     3
420
    65280
370
    18
100
AcDbLine
 10
389.238930133756
 20
115.955945096442
 30
0.0
 11
389.238930133756
 21
107.108032527077
 31
0.0
  0
LINE
  5
222
330
21C
100
AcDbEntity
  8
PROFILE
  6
AUSGEZOGEN
 62
     3
420
    65280
370
    18
100
AcDbLine
 10
389.238930133756
 20
103.608032527077
 30
0.0
 11
389.238930133756
 21
89.608032527077
 31
0.0
  0
LINE
  5
223
330
21C
100
AcDbEntity
  8
PROFILE
  6
AUSGEZOGEN
 62
     3
420
    65280
370
    18
100
AcDbLine
 10
389.238930133756
 20
119.455945096442
 30
0.0
 11
389.238930133756
 21
133.455945096442
 31
0.0
  0
LINE
  5
224
330
21C
100
AcDbEntity
  8
PROFILE
  6
AUSGEZOGEN
 62
     3
420
    65280
370
    18
100
AcDbLine
 10
387.238930133756
 20
115.955945096442
 30
0.0
 11
391.238930133756
 21
115.955945096442
 31
0.0
  0
LINE
  5
225
330
21C
100
AcDbEntity
  8
PROFILE
  6
AUSGEZOGEN
 62
     3
420
    65280
370
    18
100
AcDbLine
 10
387.238930133756
 20
107.108032527077
 30
0.0
 11
391.238930133756
 21
107.108032527077
 31
0.0
  0
WIPEOUT
  5
226
330
21C
100
AcDbEntity
  8
PROFILE
  6
AUSGEZOGEN
 62
     3
420
    65280
370
    18
 92
      308
310
34010000070000000C0000000E000000120000000C00000016000000000000C20C00000014000000010000006C0000000700000004000000FD3434759F547840E8E2B955EBCB59400000000000000000FD3434759F5478404E49A0ACF9245E400000000000000000639B9ADB05FB77404E49A0ACF9245E4000000000000000
310
00639B9ADB05FB7740E8E2B955EBCB594000000000000000000C0000000E000000030000000C0000001600000000FF00C2840000000600000005000000FD3434759F547840E8E2B955EBCB59400000000000000000FD3434759F5478404E49A0ACF9245E400000000000000000639B9ADB05FB77404E49A0ACF9245E400000
310
000000000000639B9ADB05FB7740E8E2B955EBCB59400000000000000000FD3434759F547840E8E2B955EBCB59400000000000000000
100
AcDbWipeout
 90
        0
 10
383.688930133756
 20
103.186238700418
 30
0.0
 11
17.39150021076202
 21
0.0
 31
0.0
 12
0.0
 22
17.39150021076202
 32
0.0
 13
1.0
 23
1.0
340
0
 70
     7
280
     1
281
    50
282
    50
283
     0
360
0
 71
     2
 91
        5
 14
-0.178003626361
 24
0.5
 14
-0.178003626361
 24
-0.5
 14
-0.5
 24
-0.5
 14
-0.5
 24
0.5
 14
-0.178003626361
 24
0.5
  0
TEXT
  5
227
330
21C
100
AcDbEntity
  8
PROFILE
  6
AUSGEZOGEN
 62
     3
420
    65280
370
    18
100
AcDbText
 10
388.238930133756
 20
103.186238700418
 30
0.0
 40
3.5
  1
0.348
 50
90.0
 41
1.36569303082
  7
Arial
 72
     5
 11
388.238930133756
 21
119.877738923101
 31
0.0
100
AcDbText
  0
ENDBLK
  5
21E
330
21C
100
AcDbEntity
  8
0
100
AcDbBlockEnd
  0
BLOCK
  5
2A1
330
2A0
100
AcDbEntity
  8
0
100
AcDbBlockBegin
  2
*X11
 70
     1
 10
0.0
 20
0.0
 30
0.0
  3
*X11
  1
*X11
  0
LINE
  5
2A3
330
2A0
100
AcDbEntity
  8
PROFILE
  6
AUSGEZOGEN
 62
    16
420
  8388608
370
    18
100
AcDbLine
 10
371.079903023427
 20
155.974766636976
 30
0.0
 11
370.777328954038
 21
156.277340706365
 31
0.0
  0
LINE
  5
2A4
330
2A0
100
AcDbEntity
  8
PROFILE
  6
AUSGEZOGEN
 62
    16
420
  8388608
370
    18
100
AcDbLine
 10
370.398521749831
 20
156.656147910572
 30
0.0
 11
370.398521749831
 21
156.656147910572
 31
0.0
  0
LINE
  5
2A5
330
2A0
100
AcDbEntity
  8
PROFILE
  6
AUSGEZOGEN
 62
    16
420
  8388608
370
    18
100
AcDbLine
 10
372.48196137297
 20
156.087937104261
 30
0.0
 11
372.48196137297
 21
156.087937104261
 31
0.0
  0
LINE
  5
2A6
330
2A0
100
AcDbEntity
  8
PROFILE
  6
AUSGEZOGEN
 62
    16
420
  8388608
370
    18
100
AcDbLine
 10
372.103154168763
 20
156.466744308468
 30
0.0
 11
370.219637023091
 21
158.35026145414
 31
0.0
  0
LINE
  5
2A7
330
2A0
100
AcDbEntity
  8
PROFILE
  6
AUSGEZOGEN
 62
    16
420
  8388608
370
    18
100
AcDbLine
 10
374.110360657083
 20
155.974766636976
 30
0.0
 11
372.292557770866
 21
157.792569523193
 31
0.0
  0
LINE
  5
2A8
330
2A0
100
AcDbEntity
  8
PROFILE
  6
AUSGEZOGEN
 62
    16
420
  8388608
370
    18
100
AcDbLine
 10
371.913750566659
 20
158.1713767274
 30
0.0
 11
371.913750566659
 21
158.1713767274
 31
0.0
  0
LINE
  5
2A9
330
2A0
100
AcDbEntity
  8
PROFILE
  6
AUSGEZOGEN
 62
    16
420
  8388608
370
    18
100
AcDbLine
 10
371.534943362452
 20
158.550183931607
 30
0.0
 11
371.388932085655
 21
158.696195208404
 31
0.0
  0
LINE
  5
2AA
330
2A0
100
AcDbEntity
  8
PROFILE
  6
AUSGEZOGEN
 62
    16
420
  8388608
370
    18
100
AcDbLine
 10
375.625589473912
 20
155.974766636976
 30
0.0
 11
374.375997394005
 21
157.224358716882
 31
0.0
  0
LINE
  5
2AB
330
2A0
100
AcDbEntity
  8
PROFILE
  6
AUSGEZOGEN
 62
    16
420
  8388608
370
    18
100
AcDbLine
 10
373.997190189798
 20
157.603165921089
 30
0.0
 11
373.997190189798
 21
157.603165921089
 31
0.0
  0
LINE
  5
2AC
330
2A0
100
AcDbEntity
  8
PROFILE
  6
AUSGEZOGEN
 62
    16
420
  8388608
370
    18
100
AcDbLine
 10
373.618382985591
 20
157.981973125296
 30
0.0
 11
372.904160902483
 21
158.696195208404
 31
0.0
  0
LINE
  5
2AD
330
2A0
100
AcDbEntity
  8
PROFILE
  6
AUSGEZOGEN
 62
    16
420
  8388608
370
    18
100
AcDbLine
 10
377.14081829074
 20
155.974766636976
 30
0.0
 11
376.459437017144
 21
156.656147910572
 31
0.0
  0
LINE
  5
2AE
330
2A0
100
AcDbEntity
  8
PROFILE
  6
AUSGEZOGEN
 62
    16
420
  8388608
370
    18
100
AcDbLine
 10
376.080629812937
 20
157.034955114779
 30
0.0
 11
376.080629812937
 21
157.034955114779
 31
0.0
  0
LINE
  5
2AF
330
2A0
100
AcDbEntity
  8
PROFILE
  6
AUSGEZOGEN
 62
    16
420
  8388608
370
    18
100
AcDbLine
 10
375.70182260873
 20
157.413762318986
 30
0.0
 11
374.419389719311
 21
158.696195208404
 31
0.0
  0
LINE
  5
2B0
330
2A0
100
AcDbEntity
  8
PROFILE
  6
AUSGEZOGEN
 62
    16
420
  8388608
370
    18
100
AcDbLine
 10
378.656047107568
 20
155.974766636976
 30
0.0
 11
378.542876640283
 21
156.087937104261
 31
0.0
  0
LINE
  5
2B1
330
2A0
100
AcDbEntity
  8
PROFILE
  6
AUSGEZOGEN
 62
    16
420
  8388608
370
    18
100
AcDbLine
 10
378.164069436076
 20
156.466744308468
 30
0.0
 11
378.164069436076
 21
156.466744308468
 31
0.0
  0
LINE
  5
2B2
330
2A0
100
AcDbEntity
  8
PROFILE
  6
AUSGEZOGEN
 62
    16
420
  8388608
370
    18
100
AcDbLine
 10
377.785262231869
 20
156.845551512675
 30
0.0
 11
375.93461853614
 21
158.696195208404
 31
0.0
  0
LINE
  5
2B3
330
2A0
100
AcDbEntity
  8
PROFILE
  6
AUSGEZOGEN
 62
    16
420
  8388608
370
    18
100
AcDbLine
 10
379.868701855008
 20
156.277340706365
 30
0.0
 11
377.974665833972
 21
158.1713767274
 31
0.0
  0
LINE
  5
2B4
330
2A0
100
AcDbEntity
  8
PROFILE
  6
AUSGEZOGEN
 62
    16
420
  8388608
370
    18
100
AcDbLine
 10
377.595858629765
 20
158.550183931607
 30
0.0
 11
377.595858629765
 21
158.550183931607
 31
0.0
  0
LINE
  5
2B5
330
2A0
100
AcDbEntity
  8
PROFILE
  6
AUSGEZOGEN
 62
    16
420
  8388608
370
    18
100
AcDbLine
 10
381.686504741225
 20
155.974766636976
 30
0.0
 11
380.058105457111
 21
157.603165921089
 31
0.0
  0
LINE
  5
2B6
330
2A0
100
AcDbEntity
  8
PROFILE
  6
AUSGEZOGEN
 62
    16
420
  8388608
370
    18
100
AcDbLine
 10
379.679298252904
 20
157.981973125296
 30
0.0
 11
379.679298252904
 21
157.981973125296
 31
0.0
  0
LINE
  5
2B7
330
2A0
100
AcDbEntity
  8
PROFILE
  6
AUSGEZOGEN
 62
    16
420
  8388608
370
    18
100
AcDbLine
 10
379.300491048697
 20
158.360780329504
 30
0.0
 11
378.965076169796
 21
158.696195208404
 31
0.0
  0
LINE
  5
2B8
330
2A0
100
AcDbEntity
  8
PROFILE
  6
AUSGEZOGEN
 62
    16
420
  8388608
370
    18
100
AcDbLine
 10
383.201733558053
 20
155.974766636976
 30
0.0
 11
382.14154508025
 21
157.034955114779
 31
0.0
  0
LINE
  5
2B9
330
2A0
100
AcDbEntity
  8
PROFILE
  6
AUSGEZOGEN
 62
    16
420
  8388608
370
    18
100
AcDbLine
 10
381.762737876043
 20
157.413762318986
 30
0.0
 11
381.762737876043
 21
157.413762318986
 31
0.0
  0
LINE
  5
2BA
330
2A0
100
AcDbEntity
  8
PROFILE
  6
AUSGEZOGEN
 62
    16
420
  8388608
370
    18
100
AcDbLine
 10
381.383930671836
 20
157.792569523193
 30
0.0
 11
380.480304986625
 21
158.696195208404
 31
0.0
  0
LINE
  5
2BB
330
2A0
100
AcDbEntity
  8
PROFILE
  6
AUSGEZOGEN
 62
    16
420
  8388608
370
    18
100
AcDbLine
 10
384.716962374882
 20
155.974766636976
 30
0.0
 11
384.224984703389
 21
156.466744308468
 31
0.0
  0
LINE
  5
2BC
330
2A0
100
AcDbEntity
  8
PROFILE
  6
AUSGEZOGEN
 62
    16
420
  8388608
370
    18
100
AcDbLine
 10
383.846177499182
 20
156.845551512675
 30
0.0
 11
383.846177499182
 21
156.845551512675
 31
0.0
  0
LINE
  5
2BD
330
2A0
100
AcDbEntity
  8
PROFILE
  6
AUSGEZOGEN
 62
    16
420
  8388608
370
    18
100
AcDbLine
 10
383.467370294975
 20
157.224358716882
 30
0.0
 11
381.995533803453
 21
158.696195208404
 31
0.0
  0
LINE
  5
2BE
330
2A0
100
AcDbEntity
  8
PROFILE
  6
AUSGEZOGEN
 62
    16
420
  8388608
370
    18
100
AcDbLine
 10
385.929617122321
 20
156.277340706365
 30
0.0
 11
385.929617122321
 21
156.277340706365
 31
0.0
  0
LINE
  5
2BF
330
2A0
100
AcDbEntity
  8
PROFILE
  6
AUSGEZOGEN
 62
    16
420
  8388608
370
    18
100
AcDbLine
 10
385.550809918114
 20
156.656147910572
 30
0.0
 11
383.656773897079
 21
158.550183931607
 31
0.0
  0
LINE
  5
2C0
330
2A0
100
AcDbEntity
  8
PROFILE
  6
AUSGEZOGEN
 62
    16
420
  8388608
370
    18
100
AcDbLine
 10
387.634249541253
 20
156.087937104261
 30
0.0
 11
385.740213520217
 21
157.981973125296
 31
0.0
  0
LINE
  5
2C1
330
2A0
100
AcDbEntity
  8
PROFILE
  6
AUSGEZOGEN
 62
    16
420
  8388608
370
    18
100
AcDbLine
 10
385.36140631601
 20
158.360780329504
 30
0.0
 11
385.36140631601
 21
158.360780329504
 31
0.0
  0
LINE
  5
2C2
330
2A0
100
AcDbEntity
  8
PROFILE
  6
AUSGEZOGEN
 62
    16
420
  8388608
370
    18
100
AcDbLine
 10
389.262648825367
 20
155.974766636976
 30
0.0
 11
387.823653143356
 21
157.413762318986
 31
0.0
  0
LINE
  5
2C3
330
2A0
100
AcDbEntity
  8
PROFILE
  6
AUSGEZOGEN
 62
    16
420
  8388608
370
    18
100
AcDbLine
 10
387.444845939149
 20
157.792569523193
 30
0.0
 11
387.444845939149
 21
157.792569523193
 31
0.0
  0
LINE
  5
2C4
330
2A0
100
AcDbEntity
  8
PROFILE
  6
AUSGEZOGEN
 62
    16
420
  8388608
370
    18
100
AcDbLine
 10
387.066038734942
 20
158.1713767274
 30
0.0
 11
386.541220253938
 21
158.696195208404
 31
0.0
  0
LINE
  5
2C5
330
2A0
100
AcDbEntity
  8
PROFILE
  6
AUSGEZOGEN
 62
    16
420
  8388608
370
    18
100
AcDbLine
 10
390.777877642195
 20
155.974766636976
 30
0.0
 11
389.907092766495
 21
156.845551512675
 31
0.0
  0
LINE
  5
2C6
330
2A0
100
AcDbEntity
  8
PROFILE
  6
AUSGEZOGEN
 62
    16
420
  8388608
370
    18
100
AcDbLine
 10
389.528285562288
 20
157.224358716882
 30
0.0
 11
389.528285562288
 21
157.224358716882
 31
0.0
  0
LINE
  5
2C7
330
2A0
100
AcDbEntity
  8
PROFILE
  6
AUSGEZOGEN
 62
    16
420
  8388608
370
    18
100
AcDbLine
 10
389.149478358081
 20
157.603165921089
 30
0.0
 11
388.056449070766
 21
158.696195208404
 31
0.0
  0
LINE
  5
2C8
330
2A0
100
AcDbEntity
  8
PROFILE
  6
AUSGEZOGEN
 62
    16
420
  8388608
370
    18
100
AcDbLine
 10
392.293106459023
 20
155.974766636976
 30
0.0
 11
391.990532389634
 21
156.277340706365
 31
0.0
  0
LINE
  5
2C9
330
2A0
100
AcDbEntity
  8
PROFILE
  6
AUSGEZOGEN
 62
    16
420
  8388608
370
    18
100
AcDbLine
 10
391.611725185427
 20
156.656147910572
 30
0.0
 11
391.611725185427
 21
156.656147910572
 31
0.0
  0
LINE
  5
2CA
330
2A0
100
AcDbEntity
  8
PROFILE
  6
AUSGEZOGEN
 62
    16
420
  8388608
370
    18
100
AcDbLine
 10
391.23291798122
 20
157.034955114779
 30
0.0
 11
389.571677887595
 21
158.696195208404
 31
0.0
  0
LINE
  5
2CB
330
2A0
100
AcDbEntity
  8
PROFILE
  6
AUSGEZOGEN
 62
    16
420
  8388608
370
    18
100
AcDbLine
 10
393.695164808566
 20
156.087937104261
 30
0.0
 11
393.695164808566
 21
156.087937104261
 31
0.0
  0
LINE
  5
2CC
330
2A0
100
AcDbEntity
  8
PROFILE
  6
AUSGEZOGEN
 62
    16
420
  8388608
370
    18
100
AcDbLine
 10
393.316357604359
 20
156.466744308468
 30
0.0
 11
391.422321583324
 21
158.360780329504
 31
0.0
  0
LINE
  5
2CD
330
2A0
100
AcDbEntity
  8
PROFILE
  6
AUSGEZOGEN
 62
    16
420
  8388608
370
    18
100
AcDbLine
 10
395.32356409268
 20
155.974766636976
 30
0.0
 11
393.505761206463
 21
157.792569523193
 31
0.0
  0
LINE
  5
2CE
330
2A0
100
AcDbEntity
  8
PROFILE
  6
AUSGEZOGEN
 62
    16
420
  8388608
370
    18
100
AcDbLine
 10
393.126954002256
 20
158.1713767274
 30
0.0
 11
393.126954002256
 21
158.1713767274
 31
0.0
  0
LINE
  5
2CF
330
2A0
100
AcDbEntity
  8
PROFILE
  6
AUSGEZOGEN
 62
    16
420
  8388608
370
    18
100
AcDbLine
 10
392.748146798049
 20
158.550183931607
 30
0.0
 11
392.602135521251
 21
158.696195208404
 31
0.0
  0
LINE
  5
2D0
330
2A0
100
AcDbEntity
  8
PROFILE
  6
AUSGEZOGEN
 62
    16
420
  8388608
370
    18
100
AcDbLine
 10
396.838792909508
 20
155.974766636976
 30
0.0
 11
395.589200829602
 21
157.224358716882
 31
0.0
  0
LINE
  5
2D1
330
2A0
100
AcDbEntity
  8
PROFILE
  6
AUSGEZOGEN
 62
    16
420
  8388608
370
    18
100
AcDbLine
 10
395.210393625394
 20
157.603165921089
 30
0.0
 11
395.210393625394
 21
157.603165921089
 31
0.0
  0
LINE
  5
2D2
330
2A0
100
AcDbEntity
  8
PROFILE
  6
AUSGEZOGEN
 62
    16
420
  8388608
370
    18
100
AcDbLine
 10
394.831586421187
 20
157.981973125296
 30
0.0
 11
394.11736433808
 21
158.696195208404
 31
0.0
  0
LINE
  5
2D3
330
2A0
100
AcDbEntity
  8
PROFILE
  6
AUSGEZOGEN
 62
    16
420
  8388608
370
    18
100
AcDbLine
 10
398.354021726336
 20
155.974766636976
 30
0.0
 11
397.672640452741
 21
156.656147910572
 31
0.0
  0
LINE
  5
2D4
330
2A0
100
AcDbEntity
  8
PROFILE
  6
AUSGEZOGEN
 62
    16
420
  8388608
370
    18
100
AcDbLine
 10
397.293833248533
 20
157.034955114779
 30
0.0
 11
397.293833248533
 21
157.034955114779
 31
0.0
  0
LINE
  5
2D5
330
2A0
100
AcDbEntity
  8
PROFILE
  6
AUSGEZOGEN
 62
    16
420
  8388608
370
    18
100
AcDbLine
 10
396.915026044326
 20
157.413762318986
 30
0.0
 11
395.632593154908
 21
158.696195208404
 31
0.0
  0
LINE
  5
2D6
330
2A0
100
AcDbEntity
  8
PROFILE
  6
AUSGEZOGEN
 62
    16
420
  8388608
370
    18
100
AcDbLine
 10
399.869250543165
 20
155.974766636976
 30
0.0
 11
399.756080075879
 21
156.087937104261
 31
0.0
  0
LINE
  5
2D7
330
2A0
100
AcDbEntity
  8
PROFILE
  6
AUSGEZOGEN
 62
    16
420
  8388608
370
    18
100
AcDbLine
 10
399.377272871672
 20
156.466744308468
 30
0.0
 11
399.377272871672
 21
156.466744308468
 31
0.0
  0
LINE
  5
2D8
330
2A0
100
AcDbEntity
  8
PROFILE
  6
AUSGEZOGEN
 62
    16
420
  8388608
370
    18
100
AcDbLine
 10
398.998465667465
 20
156.845551512675
 30
0.0
 11
397.147821971736
 21
158.696195208404
 31
0.0
  0
LINE
  5
2D9
330
2A0
100
AcDbEntity
  8
PROFILE
  6
AUSGEZOGEN
 62
    16
420
  8388608
370
    18
100
AcDbLine
 10
401.081905290604
 20
156.277340706365
 30
0.0
 11
399.187869269569
 21
158.1713767274
 31
0.0
  0
LINE
  5
2DA
330
2A0
100
AcDbEntity
  8
PROFILE
  6
AUSGEZOGEN
 62
    16
420
  8388608
370
    18
100
AcDbLine
 10
398.809062065362
 20
158.550183931607
 30
0.0
 11
398.809062065362
 21
158.550183931607
 31
0.0
  0
LINE
  5
2DB
330
2A0
100
AcDbEntity
  8
PROFILE
  6
AUSGEZOGEN
 62
    16
420
  8388608
370
    18
100
AcDbLine
 10
402.876779880233
 20
155.997694933564
 30
0.0
 11
401.271308892708
 21
157.603165921089
 31
0.0
  0
LINE
  5
2DC
330
2A0
100
AcDbEntity
  8
PROFILE
  6
AUSGEZOGEN
 62
    16
420
  8388608
370
    18
100
AcDbLine
 10
400.892501688501
 20
157.981973125296
 30
0.0
 11
400.892501688501
 21
157.981973125296
 31
0.0
  0
LINE
  5
2DD
330
2A0
100
AcDbEntity
  8
PROFILE
  6
AUSGEZOGEN
 62
    16
420
  8388608
370
    18
100
AcDbLine
 10
400.513694484294
 20
158.360780329504
 30
0.0
 11
400.155351308805
 21
158.719123504992
 31
0.0
  0
LINE
  5
2DE
330
2A0
100
AcDbEntity
  8
PROFILE
  6
AUSGEZOGEN
 62
    16
420
  8388608
370
    18
100
AcDbLine
 10
402.597134107433
 20
157.792569523193
 30
0.0
 11
400.703098086397
 21
159.686605544228
 31
0.0
  0
LINE
  5
2DF
330
2A0
100
AcDbEntity
  8
PROFILE
  6
AUSGEZOGEN
 62
    16
420
  8388608
370
    18
100
AcDbLine
 10
400.32429088219
 20
160.065412748435
 30
0.0
 11
400.32429088219
 21
160.065412748435
 31
0.0
  0
LINE
  5
2E0
330
2A0
100
AcDbEntity
  8
PROFILE
  6
AUSGEZOGEN
 62
    16
420
  8388608
370
    18
100
AcDbLine
 10
402.876779880233
 20
159.02815256722
 30
0.0
 11
402.786537709536
 21
159.118394737918
 31
0.0
  0
LINE
  5
2E1
330
2A0
100
AcDbEntity
  8
PROFILE
  6
AUSGEZOGEN
 62
    16
420
  8388608
370
    18
100
AcDbLine
 10
402.407730505329
 20
159.497201942125
 30
0.0
 11
402.407730505329
 21
159.497201942125
 31
0.0
  0
LINE
  5
2E2
330
2A0
100
AcDbEntity
  8
PROFILE
  6
AUSGEZOGEN
 62
    16
420
  8388608
370
    18
100
AcDbLine
 10
402.028923301122
 20
159.876009146332
 30
0.0
 11
400.155351308805
 21
161.749581138649
 31
0.0
  0
LINE
  5
2E3
330
2A0
100
AcDbEntity
  8
PROFILE
  6
AUSGEZOGEN
 62
    16
420
  8388608
370
    18
100
AcDbLine
 10
402.876779880233
 20
160.543381384049
 30
0.0
 11
402.218326903225
 21
161.201834361057
 31
0.0
  0
LINE
  5
2E4
330
2A0
100
AcDbEntity
  8
PROFILE
  6
AUSGEZOGEN
 62
    16
420
  8388608
370
    18
100
AcDbLine
 10
401.839519699018
 20
161.580641565264
 30
0.0
 11
401.839519699018
 21
161.580641565264
 31
0.0
  0
LINE
  5
2E5
330
2A0
100
AcDbEntity
  8
PROFILE
  6
AUSGEZOGEN
 62
    16
420
  8388608
370
    18
100
AcDbLine
 10
401.460712494811
 20
161.959448769471
 30
0.0
 11
400.155351308805
 21
163.264809955477
 31
0.0
  0
LINE
  5
2E6
330
2A0
100
AcDbEntity
  8
PROFILE
  6
AUSGEZOGEN
 62
    16
420
  8388608
370
    18
100
AcDbLine
 10
402.876779880233
 20
162.058610200877
 30
0.0
 11
401.650116096915
 21
163.285273984196
 31
0.0
  0
LINE
  5
2E7
330
2A0
100
AcDbEntity
  8
PROFILE
  6
AUSGEZOGEN
 62
    16
420
  8388608
370
    18
100
AcDbLine
 10
401.271308892708
 20
163.664081188403
 30
0.0
 11
401.271308892708
 21
163.664081188403
 31
0.0
  0
LINE
  5
2E8
330
2A0
100
AcDbEntity
  8
PROFILE
  6
AUSGEZOGEN
 62
    16
420
  8388608
370
    18
100
AcDbLine
 10
400.892501688501
 20
164.04288839261
 30
0.0
 11
400.155351308805
 21
164.780038772305
 31
0.0
  0
LINE
  5
2E9
330
2A0
100
AcDbEntity
  8
PROFILE
  6
AUSGEZOGEN
 62
    16
420
  8388608
370
    18
100
AcDbLine
 10
402.876779880233
 20
163.573839017705
 30
0.0
 11
401.081905290604
 21
165.368713607335
 31
0.0
  0
LINE
  5
2EA
330
2A0
100
AcDbEntity
  8
PROFILE
  6
AUSGEZOGEN
 62
    16
420
  8388608
370
    18
100
AcDbLine
 10
400.703098086397
 20
165.747520811542
 30
0.0
 11
400.703098086397
 21
165.747520811542
 31
0.0
  0
LINE
  5
2EB
330
2A0
100
AcDbEntity
  8
PROFILE
  6
AUSGEZOGEN
 62
    16
420
  8388608
370
    18
100
AcDbLine
 10
400.32429088219
 20
166.126328015749
 30
0.0
 11
400.155351308805
 21
166.295267589134
 31
0.0
  0
LINE
  5
2EC
330
2A0
100
AcDbEntity
  8
PROFILE
  6
AUSGEZOGEN
 62
    16
420
  8388608
370
    18
100
AcDbLine
 10
402.786537709536
 20
165.179310005231
 30
0.0
 11
402.786537709536
 21
165.179310005231
 31
0.0
  0
LINE
  5
2ED
330
2A0
100
AcDbEntity
  8
PROFILE
  6
AUSGEZOGEN
 62
    16
420
  8388608
370
    18
100
AcDbLine
 10
402.407730505329
 20
165.558117209438
 30
0.0
 11
400.513694484294
 21
167.452153230473
 31
0.0
  0
LINE
  5
2EE
330
2A0
100
AcDbEntity
  8
PROFILE
  6
AUSGEZOGEN
 62
    16
420
  8388608
370
    18
100
AcDbLine
 10
402.876779880233
 20
166.604296651362
 30
0.0
 11
402.597134107433
 21
166.883942424163
 31
0.0
  0
LINE
  5
2EF
330
2A0
100
AcDbEntity
  8
PROFILE
  6
AUSGEZOGEN
 62
    16
420
  8388608
370
    18
100
AcDbLine
 10
402.218326903225
 20
167.26274962837
 30
0.0
 11
402.218326903225
 21
167.26274962837
 31
0.0
  0
LINE
  5
2F0
330
2A0
100
AcDbEntity
  8
PROFILE
  6
AUSGEZOGEN
 62
    16
420
  8388608
370
    18
100
AcDbLine
 10
401.839519699018
 20
167.641556832577
 30
0.0
 11
400.155351308805
 21
169.32572522279
 31
0.0
  0
LINE
  5
2F1
330
2A0
100
AcDbEntity
  8
PROFILE
  6
AUSGEZOGEN
 62
    16
420
  8388608
370
    18
100
AcDbLine
 10
402.876779880233
 20
168.11952546819
 30
0.0
 11
402.028923301122
 21
168.967382047302
 31
0.0
  0
LINE
  5
2F2
330
2A0
100
AcDbEntity
  8
PROFILE
  6
AUSGEZOGEN
 62
    16
420
  8388608
370
    18
100
AcDbLine
 10
401.650116096915
 20
169.346189251509
 30
0.0
 11
401.650116096915
 21
169.346189251509
 31
0.0
  0
LINE
  5
2F3
330
2A0
100
AcDbEntity
  8
PROFILE
  6
AUSGEZOGEN
 62
    16
420
  8388608
370
    18
100
AcDbLine
 10
401.271308892708
 20
169.724996455716
 30
0.0
 11
400.155351308805
 21
170.840954039619
 31
0.0
  0
LINE
  5
2F4
330
2A0
100
AcDbEntity
  8
PROFILE
  6
AUSGEZOGEN
 62
    16
420
  8388608
370
    18
100
AcDbLine
 10
402.876779880233
 20
169.634754285018
 30
0.0
 11
401.460712494811
 21
171.050821670441
 31
0.0
  0
LINE
  5
2F5
330
2A0
100
AcDbEntity
  8
PROFILE
  6
AUSGEZOGEN
 62
    16
420
  8388608
370
    18
100
AcDbLine
 10
401.081905290604
 20
171.429628874648
 30
0.0
 11
401.081905290604
 21
171.429628874648
 31
0.0
  0
LINE
  5
2F6
330
2A0
100
AcDbEntity
  8
PROFILE
  6
AUSGEZOGEN
 62
    16
420
  8388608
370
    18
100
AcDbLine
 10
400.703098086397
 20
171.808436078855
 30
0.0
 11
400.208196099705
 21
172.303338065547
 31
0.0
  0
LINE
  5
2F7
330
2A0
100
AcDbEntity
  8
PROFILE
  6
AUSGEZOGEN
 62
    16
420
  8388608
370
    18
100
AcDbLine
 10
402.786537709536
 20
171.240225272544
 30
0.0
 11
401.723424916533
 21
172.303338065547
 31
0.0
  0
ENDBLK
  5
2A2
330
2A0
100
AcDbEntity
  8
0
100
AcDbBlockEnd
  0
ENDSEC
  0
SECTION
  2
ENTITIES
  0
INSERT
  5
2FA
330
1F
100
AcDbEntity
  8
0
100
AcDbBlockReference
  2
Inch
 10
0.0
 20
0.0
 30
0.0
 41
0.03937007874
 42
0.03937007874
 43
0.03937007874
  0
ENDSEC
  0
SECTION
  2
OBJECTS
  0
DICTIONARY
  5
C
330
0
100
AcDbDictionary
281
     1
  3
ACAD_DETAILVIEWSTYLE
350
338
  3
ACAD_GROUP
350
D
  3
ACAD_LAYOUT
350
1A
  3
ACAD_MATERIAL
350
43
  3
ACAD_MLEADERSTYLE
350
337
  3
ACAD_MLINESTYLE
350
17
  3
ACAD_PLOTSETTINGS
350
19
  3
ACAD_PLOTSTYLENAME
350
E
  3
ACAD_SCALELIST
350
47
  3
ACAD_SECTIONVIEWSTYLE
350
339
  3
ACAD_TABLESTYLE
350
336
  3
ACAD_VISUALSTYLE
350
2A
  3
ACAD_WIPEOUT_VARS
350
6A
  3
AcDbVariableDictionary
350
2FD
  0
DICTIONARY
  5
2FB
330
8
100
AcDbDictionary
280
     1
281
     1
  3
ACAD_XREC_ROUNDTRIP
360
2FC
  0
DICTIONARY
  5
338
102
{ACAD_REACTORS
330
C
102
}
330
C
100
AcDbDictionary
281
     1
  0
DICTIONARY
  5
D
102
{ACAD_REACTORS
330
C
102
}
330
C
100
AcDbDictionary
281
     1
  0
DICTIONARY
  5
1A
102
{ACAD_REACTORS
330
C
102
}
330
C
100
AcDbDictionary
281
     1
  3
Layout1
350
1E
  3
Layout2
350
26
  3
Model
350
22
  0
DICTIONARY
  5
43
102
{ACAD_REACTORS
330
C
102
}
330
C
100
AcDbDictionary
281
     1
  3
ByBlock
350
45
  3
ByLayer
350
44
  3
Global
350
46
  0
DICTIONARY
  5
337
102
{ACAD_REACTORS
330
C
102
}
330
C
100
AcDbDictionary
281
     1
  0
DICTIONARY
  5
17
102
{ACAD_REACTORS
330
C
102
}
330
C
100
AcDbDictionary
281
     1
  3
Standard
350
18
  0
DICTIONARY
  5
19
102
{ACAD_REACTORS
330
C
102
}
330
C
100
AcDbDictionary
281
     1
  0
ACDBDICTIONARYWDFLT
  5
E
102
{ACAD_REACTORS
330
C
102
}
330
C
100
AcDbDictionary
281
     1
  3
Normal
350
F
100
AcDbDictionaryWithDefault
340
F
  0
DICTIONARY
  5
47
102
{ACAD_REACTORS
330
C
102
}
330
C
100
AcDbDictionary
281
     1
  3
A0
350
48
  3
A1
350
49
  3
A2
350
4A
  3
A3
350
4B
  3
A4
350
4C
  3
A5
350
4D
  3
A6
350
4E
  3
A7
350
4F
  3
A8
350
50
  3
A9
350
51
  3
B0
350
52
  3
B1
350
53
  3
B2
350
54
  3
B3
350
55
  3
B4
350
56
  3
B5
350
57
  3
B6
350
58
  3
B7
350
59
  3
B8
350
5A
  3
B9
350
5B
  3
C0
350
5C
  3
C1
350
5D
  3
C2
350
5E
  3
C3
350
5F
  3
C4
350
60
  3
C5
350
61
  3
C6
350
62
  3
C7
350
63
  3
C8
350
64
  3
C9
350
65
  3
D0
350
66
  3
D1
350
67
  3
D2
350
68
  0
DICTIONARY
  5
339
102
{ACAD_REACTORS
330
C
102
}
330
C
100
AcDbDictionary
281
     1
  0
DICTIONARY
  5
336
102
{ACAD_REACTORS
330
C
102
}
330
C
100
AcDbDictionary
281
     1
  0
DICTIONARY
  5
2A
102
{ACAD_REACTORS
330
C
102
}
330
C
100
AcDbDictionary
281
     1
  3
2dWireframe
350
2F
  3
Basic
350
32
  3
Brighten
350
36
  3
ColorChange
350
3A
  3
Conceptual
350
34
  3
Dim
350
35
  3
EdgeColorOff
350
3D
  3
Facepattern
350
39
  3
Flat
350
2B
  3
FlatWithEdges
350
2C
  3
Gouraud
350
2D
  3
GouraudWithEdges
350
2E
  3
Hidden
350
31
  3
JitterOff
350
3B
  3
Linepattern
350
38
  3
OverhangOff
350
3C
  3
Realistic
350
33
  3
Shaded
350
42
  3
Shaded with edges
350
41
  3
Shades of Gray
350
3E
  3
Sketchy
350
3F
  3
Thicken
350
37
  3
Wireframe
350
30
  3
X-Ray
350
40
  0
WIPEOUTVARIABLES
  5
6A
102
{ACAD_REACTORS
330
C
102
}
330
C
100
AcDbWipeoutVariables
 70
     0
  0
DICTIONARY
  5
2FD
102
{ACAD_REACTORS
330
C
102
}
330
C
100
AcDbDictionary
281
     1
  3
CANNOSCALE
350
2FE
  3
MSLTSCALE
350
2FF
  0
XRECORD
  5
2FC
102
{ACAD_REACTORS
330
2FB
102
}
330
2FB
100
AcDbXrecord
280
     1
102
VTR_0.000_0.000_1.000_1.000_GRIDDISPLAY
 70
     3
102
VTR_0.000_0.000_1.000_1.000_GRIDMAJOR
 70
     5
102
VTR_0.000_0.000_1.000_1.000_DEFAULTLIGHTING
280
     1
102
VTR_0.000_0.000_1.000_1.000_DEFAULTLIGHTINGTYPE
 70
     1
102
VTR_0.000_0.000_1.000_1.000_BRIGHTNESS
141
0.0
102
VTR_0.000_0.000_1.000_1.000_CONTRAST
142
0.0
  0
LAYOUT
  5
1E
102
{ACAD_REACTORS
330
1A
102
}
330
1A
100
AcDbPlotSettings
  1

  2
none_device
  4

  6

 40
0.0
 41
0.0
 42
0.0
 43
0.0
 44
0.0
 45
0.0
 46
0.0
 47
0.0
 48
0.0
 49
0.0
140
0.0
141
0.0
142
1.0
143
1.0
 70
   688
 72
     1
 73
     0
 74
     5
  7

 75
    16
 76
     0
 77
     2
 78
   300
147
1.0
148
0.0
149
0.0
100
AcDbLayout
  1
Layout1
 70
     1
 71
     1
 10
0.0
 20
0.0
 11
420.0
 21
297.0
 12
0.0
 22
0.0
 32
0.0
 14
1.000000000000E+20
 24
1.000000000000E+20
 34
1.000000000000E+20
 15
-1.000000000000E+20
 25
-1.000000000000E+20
 35
-1.000000000000E+20
146
0.0
 13
0.0
 23
0.0
 33
0.0
 16
1.0
 26
0.0
 36
0.0
 17
0.0
 27
1.0
 37
0.0
 76
     0
330
1B
  0
LAYOUT
  5
26
102
{ACAD_REACTORS
330
1A
102
}
330
1A
100
AcDbPlotSettings
  1

  2
none_device
  4

  6

 40
0.0
 41
0.0
 42
0.0
 43
0.0
 44
0.0
 45
0.0
 46
0.0
 47
0.0
 48
0.0
 49
0.0
140
0.0
141
0.0
142
1.0
143
1.0
 70
   688
 72
     1
 73
     0
 74
     5
  7

 75
    16
 76
     0
 77
     2
 78
   300
147
1.0
148
0.0
149
0.0
100
AcDbLayout
  1
Layout2
 70
     1
 71
     2
 10
0.0
 20
0.0
 11
0.0
 21
0.0
 12
0.0
 22
0.0
 32
0.0
 14
0.0
 24
0.0
 34
0.0
 15
0.0
 25
0.0
 35
0.0
146
0.0
 13
0.0
 23
0.0
 33
0.0
 16
1.0
 26
0.0
 36
0.0
 17
0.0
 27
1.0
 37
0.0
 76
     0
330
23
  0
LAYOUT
  5
22
102
{ACAD_REACTORS
330
1A
102
}
330
1A
100
AcDbPlotSettings
  1

  2
none_device
  4
Letter_(8.50_x_11.00_Inches)
  6

 40
6.35
 41
6.35
 42
6.35000508
 43
6.35000508
 44
215.9
 45
279.4
 46
0.0
 47
0.0
 48
0.0
 49
0.0
140
0.0
141
0.0
142
1.0
143
1.0
 70
  1712
 72
     1
 73
     0
 74
     0
  7

 75
     0
 76
     0
 77
     2
 78
   300
147
1.0
148
0.0
149
0.0
100
AcDbLayout
  1
Model
 70
     1
 71
     0
 10
0.0
 20
0.0
 11
420.0
 21
297.0
 12
0.0
 22
0.0
 32
0.0
 14
-1.286628120447
 24
-0.416070929322
 34
0.0
 15
25.866628874965
 25
10.928229070678
 35
0.0
146
0.0
 13
0.0
 23
0.0
 33
0.0
 16
1.0
 26
0.0
 36
0.0
 17
0.0
 27
1.0
 37
0.0
 76
     0
330
1F
331
29
  0
MATERIAL
  5
45
102
{ACAD_REACTORS
330
43
102
}
102
{ACAD_XDICTIONARY
360
332
102
}
330
43
100
AcDbMaterial
  1
ByBlock
  0
MATERIAL
  5
44
102
{ACAD_REACTORS
330
43
102
}
102
{ACAD_XDICTIONARY
360
330
102
}
330
43
100
AcDbMaterial
  1
ByLayer
  0
MATERIAL
  5
46
102
{ACAD_REACTORS
330
43
102
}
102
{ACAD_XDICTIONARY
360
334
102
}
330
43
100
AcDbMaterial
  1
Global
  0
MLINESTYLE
  5
18
102
{ACAD_REACTORS
330
17
102
}
330
17
100
AcDbMlineStyle
  2
Standard
 70
     0
  3

 62
   256
 51
90.0
 52
90.0
 71
     2
 49
0.5
 62
   256
  6
BYLAYER
 49
-0.5
 62
   256
  6
BYLAYER
  0
ACDBPLACEHOLDER
  5
F
102
{ACAD_REACTORS
330
E
102
}
330
E
  0
SCALE
  5
48
102
{ACAD_REACTORS
330
47
102
}
330
47
100
AcDbScale
 70
     0
300
1:1
140
1.0
141
1.0
290
     1
  0
SCALE
  5
49
102
{ACAD_REACTORS
330
47
102
}
330
47
100
AcDbScale
 70
     0
300
1:2
140
1.0
141
2.0
290
     0
  0
SCALE
  5
4A
102
{ACAD_REACTORS
330
47
102
}
330
47
100
AcDbScale
 70
     0
300
1:4
140
1.0
141
4.0
290
     0
  0
SCALE
  5
4B
102
{ACAD_REACTORS
330
47
102
}
330
47
100
AcDbScale
 70
     0
300
1:5
140
1.0
141
5.0
290
     0
  0
SCALE
  5
4C
102
{ACAD_REACTORS
330
47
102
}
330
47
100
AcDbScale
 70
     0
300
1:8
140
1.0
141
8.0
290
     0
  0
SCALE
  5
4D
102
{ACAD_REACTORS
330
47
102
}
330
47
100
AcDbScale
 70
     0
300
1:10
140
1.0
141
10.0
290
     0
  0
SCALE
  5
4E
102
{ACAD_REACTORS
330
47
102
}
330
47
100
AcDbScale
 70
     0
300
1:16
140
1.0
141
16.0
290
     0
  0
SCALE
  5
4F
102
{ACAD_REACTORS
330
47
102
}
330
47
100
AcDbScale
 70
     0
300
1:20
140
1.0
141
20.0
290
     0
  0
SCALE
  5
50
102
{ACAD_REACTORS
330
47
102
}
330
47
100
AcDbScale
 70
     0
300
1:30
140
1.0
141
30.0
290
     0
  0
SCALE
  5
51
102
{ACAD_REACTORS
330
47
102
}
330
47
100
AcDbScale
 70
     0
300
1:40
140
1.0
141
40.0
290
     0
  0
SCALE
  5
52
102
{ACAD_REACTORS
330
47
102
}
330
47
100
AcDbScale
 70
     0
300
1:50
140
1.0
141
50.0
290
     0
  0
SCALE
  5
53
102
{ACAD_REACTORS
330
47
102
}
330
47
100
AcDbScale
 70
     0
300
1:100
140
1.0
141
100.0
290
     0
  0
SCALE
  5
54
102
{ACAD_REACTORS
330
47
102
}
330
47
100
AcDbScale
 70
     0
300
2:1
140
2.0
141
1.0
290
     0
  0
SCALE
  5
55
102
{ACAD_REACTORS
330
47
102
}
330
47
100
AcDbScale
 70
     0
300
4:1
140
4.0
141
1.0
290
     0
  0
SCALE
  5
56
102
{ACAD_REACTORS
330
47
102
}
330
47
100
AcDbScale
 70
     0
300
8:1
140
8.0
141
1.0
290
     0
  0
SCALE
  5
57
102
{ACAD_REACTORS
330
47
102
}
330
47
100
AcDbScale
 70
     0
300
10:1
140
10.0
141
1.0
290
     0
  0
SCALE
  5
58
102
{ACAD_REACTORS
330
47
102
}
330
47
100
AcDbScale
 70
     0
300
100:1
140
100.0
141
1.0
290
     0
  0
SCALE
  5
59
102
{ACAD_REACTORS
330
47
102
}
330
47
100
AcDbScale
 70
     0
300
1/128" = 1'-0"
140
0.0078125
141
12.0
290
     0
  0
SCALE
  5
5A
102
{ACAD_REACTORS
330
47
102
}
330
47
100
AcDbScale
 70
     0
300
1/64" = 1'-0"
140
0.015625
141
12.0
290
     0
  0
SCALE
  5
5B
102
{ACAD_REACTORS
330
47
102
}
330
47
100
AcDbScale
 70
     0
300
1/32" = 1'-0"
140
0.03125
141
12.0
290
     0
  0
SCALE
  5
5C
102
{ACAD_REACTORS
330
47
102
}
330
47
100
AcDbScale
 70
     0
300
1/16" = 1'-0"
140
0.0625
141
12.0
290
     0
  0
SCALE
  5
5D
102
{ACAD_REACTORS
330
47
102
}
330
47
100
AcDbScale
 70
     0
300
3/32" = 1'-0"
140
0.09375
141
12.0
290
     0
  0
SCALE
  5
5E
102
{ACAD_REACTORS
330
47
102
}
330
47
100
AcDbScale
 70
     0
300
1/8" = 1'-0"
140
0.125
141
12.0
290
     0
  0
SCALE
  5
5F
102
{ACAD_REACTORS
330
47
102
}
330
47
100
AcDbScale
 70
     0
300
3/16" = 1'-0"
140
0.1875
141
12.0
290
     0
  0
SCALE
  5
60
102
{ACAD_REACTORS
330
47
102
}
330
47
100
AcDbScale
 70
     0
300
1/4" = 1'-0"
140
0.25
141
12.0
290
     0
  0
SCALE
  5
61
102
{ACAD_REACTORS
330
47
102
}
330
47
100
AcDbScale
 70
     0
300
3/8" = 1'-0"
140
0.375
141
12.0
290
     0
  0
SCALE
  5
62
102
{ACAD_REACTORS
330
47
102
}
330
47
100
AcDbScale
 70
     0
300
1/2" = 1'-0"
140
0.5
141
12.0
290
     0
  0
SCALE
  5
63
102
{ACAD_REACTORS
330
47
102
}
330
47
100
AcDbScale
 70
     0
300
3/4" = 1'-0"
140
0.75
141
12.0
290
     0
  0
SCALE
  5
64
102
{ACAD_REACTORS
330
47
102
}
330
47
100
AcDbScale
 70
     0
300
1" = 1'-0"
140
1.0
141
12.0
290
     0
  0
SCALE
  5
65
102
{ACAD_REACTORS
330
47
102
}
330
47
100
AcDbScale
 70
     0
300
1-1/2" = 1'-0"
140
1.5
141
12.0
290
     0
  0
SCALE
  5
66
102
{ACAD_REACTORS
330
47
102
}
330
47
100
AcDbScale
 70
     0
300
3" = 1'-0"
140
3.0
141
12.0
290
     0
  0
SCALE
  5
67
102
{ACAD_REACTORS
330
47
102
}
330
47
100
AcDbScale
 70
     0
300
6" = 1'-0"
140
6.0
141
12.0
290
     0
  0
SCALE
  5
68
102
{ACAD_REACTORS
330
47
102
}
330
47
100
AcDbScale
 70
     0
300
1'-0" = 1'-0"
140
12.0
141
12.0
290
     0
  0
VISUALSTYLE
  5
2F
102
{ACAD_REACTORS
330
2A
102
}
102
{ACAD_XDICTIONARY
360
308
102
}
330
2A
100
AcDbVisualStyle
  2
2dWireframe
 70
     4
 71
     0
 72
     2
 73
     0
 90
        0
 40
0.6
 41
30.0
 62
     5
 63
     7
421
 16777215
 74
     1
 91
        4
 64
     7
 65
   257
 75
     1
175
     1
 42
1.0
 92
        0
 66
   257
 43
1.0
 76
     1
 77
     6
 78
     2
 67
     7
 79
     5
170
     0
171
     0
290
     0
174
     0
 93
        1
 44
0.0
173
     0
291
     0
 45
0.0
1001
ACAD
1000
AcDbSavedByObjectVersion
1070
     0
  0
VISUALSTYLE
  5
32
102
{ACAD_REACTORS
330
2A
102
}
102
{ACAD_XDICTIONARY
360
30E
102
}
330
2A
100
AcDbVisualStyle
  2
Basic
 70
     7
 71
     1
 72
     0
 73
     1
 90
        0
 40
0.6
 41
30.0
 62
     5
 63
     7
421
 16777215
 74
     0
 91
        4
 64
     7
 65
   257
 75
     1
175
     1
 42
1.0
 92
        8
 66
     7
 43
1.0
 76
     1
 77
     6
 78
     2
 67
     7
 79
     5
170
     0
171
     0
290
     0
174
     0
 93
        1
 44
0.0
173
     0
291
     1
 45
0.0
1001
ACAD
1000
AcDbSavedByObjectVersion
1070
     0
  0
VISUALSTYLE
  5
36
102
{ACAD_REACTORS
330
2A
102
}
102
{ACAD_XDICTIONARY
360
316
102
}
330
2A
100
AcDbVisualStyle
  2
Brighten
 70
    12
 71
     2
 72
     2
 73
     0
 90
        0
 40
0.6
 41
30.0
 62
     5
 63
     7
421
 16777215
 74
     1
 91
        4
 64
     7
 65
   257
 75
     1
175
     1
 42
1.0
 92
        8
 66
     7
 43
1.0
 76
     1
 77
     6
 78
     2
 67
     7
 79
     5
170
     0
171
     0
290
     0
174
     0
 93
        1
 44
50.0
173
     0
291
     1
 45
0.0
1001
ACAD
1000
AcDbSavedByObjectVersion
1070
     0
  0
VISUALSTYLE
  5
3A
102
{ACAD_REACTORS
330
2A
102
}
102
{ACAD_XDICTIONARY
360
31E
102
}
330
2A
100
AcDbVisualStyle
  2
ColorChange
 70
    16
 71
     2
 72
     2
 73
     3
 90
        0
 40
0.6
 41
30.0
 62
     5
 63
     8
421
  8421504
 74
     1
 91
        4
 64
     7
 65
   257
 75
     1
175
     1
 42
1.0
 92
        8
 66
     8
424
  8421504
 43
1.0
 76
     1
 77
     6
 78
     2
 67
     7
 79
     5
170
     0
171
     0
290
     0
174
     0
 93
        1
 44
0.0
173
     0
291
     1
 45
0.0
1001
ACAD
1000
AcDbSavedByObjectVersion
1070
     0
  0
VISUALSTYLE
  5
34
102
{ACAD_REACTORS
330
2A
102
}
102
{ACAD_XDICTIONARY
360
312
102
}
330
2A
100
AcDbVisualStyle
  2
Conceptual
 70
     9
 71
     3
 72
     2
 73
     0
 90
        0
 40
0.6
 41
30.0
 62
     5
 63
     7
421
 16777215
 74
     2
 91
        2
 64
     7
 65
   257
 75
     1
175
     1
 42
179.0
 92
        8
 66
     7
 43
1.0
 76
     1
 77
     6
 78
     2
 67
     7
 79
     3
170
     0
171
     0
290
     0
174
     0
 93
        1
 44
0.0
173
     0
291
     0
 45
0.0
1001
ACAD
1000
AcDbSavedByObjectVersion
1070
     0
  0
VISUALSTYLE
  5
35
102
{ACAD_REACTORS
330
2A
102
}
102
{ACAD_XDICTIONARY
360
314
102
}
330
2A
100
AcDbVisualStyle
  2
Dim
 70
    11
 71
     2
 72
     2
 73
     0
 90
        0
 40
0.6
 41
30.0
 62
     5
 63
     7
421
 16777215
 74
     1
 91
        4
 64
     7
 65
   257
 75
     1
175
     1
 42
1.0
 92
        8
 66
     7
 43
1.0
 76
     1
 77
     6
 78
     2
 67
     7
 79
     5
170
     0
171
     0
290
     0
174
     0
 93
        1
 44
-50.0
173
     0
291
     1
 45
0.0
1001
ACAD
1000
AcDbSavedByObjectVersion
1070
     0
  0
VISUALSTYLE
  5
3D
102
{ACAD_REACTORS
330
2A
102
}
102
{ACAD_XDICTIONARY
360
324
102
}
330
2A
100
AcDbVisualStyle
  2
EdgeColorOff
 70
    22
 71
     2
 72
     2
 73
     0
 90
        0
 40
0.6
 41
30.0
 62
     5
 63
     7
421
 16777215
 74
     1
 91
        4
 64
     7
 65
   257
 75
     1
175
     1
 42
1.0
 92
        8
 66
     7
 43
1.0
 76
     1
 77
     6
 78
     2
 67
     7
 79
     5
170
     0
171
     0
290
     0
174
     0
 93
        1
 44
0.0
173
     0
291
     1
 45
0.0
1001
ACAD
1000
AcDbSavedByObjectVersion
1070
     0
  0
VISUALSTYLE
  5
39
102
{ACAD_REACTORS
330
2A
102
}
102
{ACAD_XDICTIONARY
360
31C
102
}
330
2A
100
AcDbVisualStyle
  2
Facepattern
 70
    15
 71
     2
 72
     2
 73
     0
 90
        0
 40
0.6
 41
30.0
 62
     5
 63
     7
421
 16777215
 74
     1
 91
        4
 64
     7
 65
   257
 75
     1
175
     1
 42
1.0
 92
        8
 66
     7
 43
1.0
 76
     1
 77
     6
 78
     2
 67
     7
 79
     5
170
     0
171
     0
290
     0
174
     0
 93
        1
 44
0.0
173
     0
291
     1
 45
0.0
1001
ACAD
1000
AcDbSavedByObjectVersion
1070
     0
  0
VISUALSTYLE
  5
2B
102
{ACAD_REACTORS
330
2A
102
}
102
{ACAD_XDICTIONARY
360
300
102
}
330
2A
100
AcDbVisualStyle
  2
Flat
 70
     0
 71
     2
 72
     1
 73
     1
 90
        2
 40
0.6
 41
30.0
 62
     5
 63
     7
421
 16777215
 74
     0
 91
        0
 64
     7
 65
   257
 75
     1
175
     1
 42
1.0
 92
        8
 66
     7
 43
1.0
 76
     1
 77
     6
 78
     2
 67
     7
 79
     5
170
     0
171
     0
290
     0
174
     0
 93
       13
 44
0.0
173
     0
291
     1
 45
0.0
1001
ACAD
1000
AcDbSavedByObjectVersion
1070
     0
  0
VISUALSTYLE
  5
2C
102
{ACAD_REACTORS
330
2A
102
}
102
{ACAD_XDICTIONARY
360
302
102
}
330
2A
100
AcDbVisualStyle
  2
FlatWithEdges
 70
     1
 71
     2
 72
     1
 73
     1
 90
        2
 40
0.6
 41
30.0
 62
     5
 63
     7
421
 16777215
 74
     1
 91
        0
 64
     7
 65
   257
 75
     1
175
     1
 42
1.0
 92
        0
 66
   257
 43
1.0
 76
     1
 77
     6
 78
     2
 67
     7
 79
     5
170
     0
171
     0
290
     0
174
     0
 93
       13
 44
0.0
173
     0
291
     1
 45
0.0
1001
ACAD
1000
AcDbSavedByObjectVersion
1070
     0
  0
VISUALSTYLE
  5
2D
102
{ACAD_REACTORS
330
2A
102
}
102
{ACAD_XDICTIONARY
360
304
102
}
330
2A
100
AcDbVisualStyle
  2
Gouraud
 70
     2
 71
     2
 72
     2
 73
     1
 90
        2
 40
0.6
 41
30.0
 62
     5
 63
     7
421
 16777215
 74
     0
 91
        0
 64
     7
 65
   257
 75
     1
175
     1
 42
1.0
 92
        0
 66
     7
 43
1.0
 76
     1
 77
     6
 78
     2
 67
     7
 79
     5
170
     0
171
     0
290
     0
174
     0
 93
       13
 44
0.0
173
     0
291
     1
 45
0.0
1001
ACAD
1000
AcDbSavedByObjectVersion
1070
     0
  0
VISUALSTYLE
  5
2E
102
{ACAD_REACTORS
330
2A
102
}
102
{ACAD_XDICTIONARY
360
306
102
}
330
2A
100
AcDbVisualStyle
  2
GouraudWithEdges
 70
     3
 71
     2
 72
     2
 73
     1
 90
        2
 40
0.6
 41
30.0
 62
     5
 63
     7
421
 16777215
 74
     1
 91
        0
 64
     7
 65
   257
 75
     1
175
     1
 42
1.0
 92
        0
 66
   257
 43
1.0
 76
     1
 77
     6
 78
     2
 67
     7
 79
     5
170
     0
171
     0
290
     0
174
     0
 93
       13
 44
0.0
173
     0
291
     1
 45
0.0
1001
ACAD
1000
AcDbSavedByObjectVersion
1070
     0
  0
VISUALSTYLE
  5
31
102
{ACAD_REACTORS
330
2A
102
}
102
{ACAD_XDICTIONARY
360
30C
102
}
330
2A
100
AcDbVisualStyle
  2
Hidden
 70
     6
 71
     1
 72
     2
 73
     2
 90
        0
 40
0.6
 41
30.0
 62
     5
 63
     7
421
 16777215
 74
     2
 91
        2
 64
     7
 65
   257
 75
     2
175
     1
 42
40.0
 92
        0
 66
   257
 43
1.0
 76
     1
 77
     6
 78
     2
 67
     7
 79
     3
170
     0
171
     0
290
     0
174
     0
 93
        1
 44
0.0
173
     0
291
     0
 45
0.0
1001
ACAD
1000
AcDbSavedByObjectVersion
1070
     0
  0
VISUALSTYLE
  5
3B
102
{ACAD_REACTORS
330
2A
102
}
102
{ACAD_XDICTIONARY
360
320
102
}
330
2A
100
AcDbVisualStyle
  2
JitterOff
 70
    20
 71
     2
 72
     2
 73
     0
 90
        0
 40
0.6
 41
30.0
 62
     5
 63
     7
421
 16777215
 74
     1
 91
        4
 64
     7
 65
   257
 75
     1
175
     1
 42
1.0
 92
       10
 66
     7
 43
1.0
 76
     1
 77
     6
 78
     2
 67
     7
 79
     5
170
     0
171
     0
290
     0
174
     0
 93
        1
 44
0.0
173
     0
291
     1
 45
0.0
1001
ACAD
1000
AcDbSavedByObjectVersion
1070
     0
  0
VISUALSTYLE
  5
38
102
{ACAD_REACTORS
330
2A
102
}
102
{ACAD_XDICTIONARY
360
31A
102
}
330
2A
100
AcDbVisualStyle
  2
Linepattern
 70
    14
 71
     2
 72
     2
 73
     0
 90
        0
 40
0.6
 41
30.0
 62
     5
 63
     7
421
 16777215
 74
     1
 91
        4
 64
     7
 65
   257
 75
     7
175
     7
 42
1.0
 92
        8
 66
     7
 43
1.0
 76
     1
 77
     6
 78
     2
 67
     7
 79
     5
170
     0
171
     0
290
     0
174
     0
 93
        1
 44
0.0
173
     0
291
     1
 45
0.0
1001
ACAD
1000
AcDbSavedByObjectVersion
1070
     0
  0
VISUALSTYLE
  5
3C
102
{ACAD_REACTORS
330
2A
102
}
102
{ACAD_XDICTIONARY
360
322
102
}
330
2A
100
AcDbVisualStyle
  2
OverhangOff
 70
    21
 71
     2
 72
     2
 73
     0
 90
        0
 40
0.6
 41
30.0
 62
     5
 63
     7
421
 16777215
 74
     1
 91
        4
 64
     7
 65
   257
 75
     1
175
     1
 42
1.0
 92
        9
 66
     7
 43
1.0
 76
     1
 77
     6
 78
     2
 67
     7
 79
     5
170
     0
171
     0
290
     0
174
     0
 93
        1
 44
0.0
173
     0
291
     1
 45
0.0
1001
ACAD
1000
AcDbSavedByObjectVersion
1070
     0
  0
VISUALSTYLE
  5
33
102
{ACAD_REACTORS
330
2A
102
}
102
{ACAD_XDICTIONARY
360
310
102
}
330
2A
100
AcDbVisualStyle
  2
Realistic
 70
     8
 71
     2
 72
     3
 73
     0
 90
        2
 40
0.6
 41
30.0
 62
     5
 63
     7
421
 16777215
 74
     0
 91
        0
 64
     7
 65
   257
 75
     1
175
     1
 42
1.0
 92
        8
 66
   257
 43
1.0
 76
     1
 77
     6
 78
     2
 67
     7
 79
     3
170
     0
171
     0
290
     0
174
     0
 93
       13
 44
0.0
173
     0
291
     0
 45
0.0
1001
ACAD
1000
AcDbSavedByObjectVersion
1070
     0
  0
VISUALSTYLE
  5
42
102
{ACAD_REACTORS
330
2A
102
}
102
{ACAD_XDICTIONARY
360
32E
102
}
330
2A
100
AcDbVisualStyle
  2
Shaded
 70
    27
 71
     2
 72
     2
 73
     1
 90
        2
 40
0.6
 41
30.0
 62
     5
 63
     7
421
 16777215
 74
     0
 91
        4
 64
     7
 65
   257
 75
     1
175
     1
 42
1.0
 92
        8
 66
   257
 43
1.0
 76
     1
 77
     6
 78
     2
 67
     8
425
  7895160
 79
     3
170
     0
171
     0
290
     0
174
     0
 93
        5
 44
0.0
173
     0
291
     0
 45
0.0
1001
ACAD
1000
AcDbSavedByObjectVersion
1070
     0
  0
VISUALSTYLE
  5
41
102
{ACAD_REACTORS
330
2A
102
}
102
{ACAD_XDICTIONARY
360
32C
102
}
330
2A
100
AcDbVisualStyle
  2
Shaded with edges
 70
    26
 71
     2
 72
     2
 73
     1
 90
        2
 40
0.6
 41
30.0
 62
     5
 63
     7
421
 16777215
 74
     1
 91
       10
 64
     7
 65
   257
 75
     2
175
     1
 42
1.0
 92
        8
 66
   257
 43
1.0
 76
     1
 77
     6
 78
     2
 67
     7
 79
     3
170
     0
171
     0
290
     0
174
     0
 93
        5
 44
0.0
173
     0
291
     0
 45
0.0
1001
ACAD
1000
AcDbSavedByObjectVersion
1070
     0
  0
VISUALSTYLE
  5
3E
102
{ACAD_REACTORS
330
2A
102
}
102
{ACAD_XDICTIONARY
360
326
102
}
330
2A
100
AcDbVisualStyle
  2
Shades of Gray
 70
    23
 71
     2
 72
     2
 73
     3
 90
        0
 40
0.6
 41
30.0
 62
     5
 63
     7
421
 16777215
 74
     2
 91
        2
 64
     7
 65
     7
 75
     1
175
     1
 42
40.0
 92
        8
 66
     7
 43
1.0
 76
     1
 77
     6
 78
     2
 67
     7
 79
     3
170
     0
171
     0
290
     0
174
     0
 93
        1
 44
0.0
173
     0
291
     0
 45
0.0
1001
ACAD
1000
AcDbSavedByObjectVersion
1070
     0
  0
VISUALSTYLE
  5
3F
102
{ACAD_REACTORS
330
2A
102
}
102
{ACAD_XDICTIONARY
360
328
102
}
330
2A
100
AcDbVisualStyle
  2
Sketchy
 70
    24
 71
     1
 72
     2
 73
     2
 90
        0
 40
0.6
 41
30.0
 62
     5
 63
     7
421
 16777215
 74
     2
 91
        2
 64
     7
 65
     7
 75
     1
175
     1
 42
40.0
 92
       11
 66
     7
 43
1.0
 76
     1
 77
     6
 78
     2
 67
     7
 79
     6
170
     0
171
     0
290
     0
174
     0
 93
        1
 44
0.0
173
     0
291
     0
 45
0.0
1001
ACAD
1000
AcDbSavedByObjectVersion
1070
     0
  0
VISUALSTYLE
  5
37
102
{ACAD_REACTORS
330
2A
102
}
102
{ACAD_XDICTIONARY
360
318
102
}
330
2A
100
AcDbVisualStyle
  2
Thicken
 70
    13
 71
     2
 72
     2
 73
     0
 90
        0
 40
0.6
 41
30.0
 62
     5
 63
     7
421
 16777215
 74
     1
 91
        4
 64
     7
 65
   257
 75
     1
175
     1
 42
1.0
 92
       12
 66
     7
 43
1.0
 76
     1
 77
     6
 78
     2
 67
     7
 79
     5
170
     0
171
     0
290
     0
174
     0
 93
        1
 44
0.0
173
     0
291
     1
 45
0.0
1001
ACAD
1000
AcDbSavedByObjectVersion
1070
     0
  0
VISUALSTYLE
  5
30
102
{ACAD_REACTORS
330
2A
102
}
102
{ACAD_XDICTIONARY
360
30A
102
}
330
2A
100
AcDbVisualStyle
  2
Wireframe
 70
     5
 71
     0
 72
     2
 73
     0
 90
        0
 40
0.6
 41
30.0
 62
     5
 63
     7
421
 16777215
 74
     1
 91
        4
 64
     7
 65
   257
 75
     1
175
     1
 42
1.0
 92
        0
 66
   257
 43
1.0
 76
     1
 77
     6
 78
     2
 67
     7
 79
     3
170
     0
171
     0
290
     0
174
     0
 93
        1
 44
0.0
173
     0
291
     0
 45
0.0
1001
ACAD
1000
AcDbSavedByObjectVersion
1070
     0
  0
VISUALSTYLE
  5
40
102
{ACAD_REACTORS
330
2A
102
}
102
{ACAD_XDICTIONARY
360
32A
102
}
330
2A
100
AcDbVisualStyle
  2
X-Ray
 70
    25
 71
     2
 72
     2
 73
     1
 90
        1
 40
0.5
 41
30.0
 62
     5
 63
     7
421
 16777215
 74
     1
 91
        0
 64
     7
 65
   257
 75
     1
175
     1
 42
1.0
 92
        8
 66
     7
 43
1.0
 76
     1
 77
     6
 78
     2
 67
     7
 79
     3
170
     0
171
     0
290
     0
174
     0
 93
       13
 44
0.0
173
     0
291
     0
 45
0.0
1001
ACAD
1000
AcDbSavedByObjectVersion
1070
     0
  0
DICTIONARYVAR
  5
2FE
102
{ACAD_REACTORS
330
2FD
102
}
330
2FD
100
DictionaryVariables
280
     0
  1
1:1
  0
DICTIONARYVAR
  5
2FF
102
{ACAD_REACTORS
330
2FD
102
}
330
2FD
100
DictionaryVariables
280
     0
  1
1
  0
DICTIONARY
  5
332
330
45
100
AcDbDictionary
280
     1
281
     1
  3
ACAD_XREC_ROUNDTRIP
360
333
  0
DICTIONARY
  5
330
330
44
100
AcDbDictionary
280
     1
281
     1
  3
ACAD_XREC_ROUNDTRIP
360
331
  0
DICTIONARY
  5
334
330
46
100
AcDbDictionary
280
     1
281
     1
  3
ACAD_XREC_ROUNDTRIP
360
335
  0
DICTIONARY
  5
308
330
2F
100
AcDbDictionary
280
     1
281
     1
  3
ACAD_XREC_ROUNDTRIP
360
309
  0
DICTIONARY
  5
30E
330
32
100
AcDbDictionary
280
     1
281
     1
  3
ACAD_XREC_ROUNDTRIP
360
30F
  0
DICTIONARY
  5
316
330
36
100
AcDbDictionary
280
     1
281
     1
  3
ACAD_XREC_ROUNDTRIP
360
317
  0
DICTIONARY
  5
31E
330
3A
100
AcDbDictionary
280
     1
281
     1
  3
ACAD_XREC_ROUNDTRIP
360
31F
  0
DICTIONARY
  5
312
330
34
100
AcDbDictionary
280
     1
281
     1
  3
ACAD_XREC_ROUNDTRIP
360
313
  0
DICTIONARY
  5
314
330
35
100
AcDbDictionary
280
     1
281
     1
  3
ACAD_XREC_ROUNDTRIP
360
315
  0
DICTIONARY
  5
324
330
3D
100
AcDbDictionary
280
     1
281
     1
  3
ACAD_XREC_ROUNDTRIP
360
325
  0
DICTIONARY
  5
31C
330
39
100
AcDbDictionary
280
     1
281
     1
  3
ACAD_XREC_ROUNDTRIP
360
31D
  0
DICTIONARY
  5
300
330
2B
100
AcDbDictionary
280
     1
281
     1
  3
ACAD_XREC_ROUNDTRIP
360
301
  0
DICTIONARY
  5
302
330
2C
100
AcDbDictionary
280
     1
281
     1
  3
ACAD_XREC_ROUNDTRIP
360
303
  0
DICTIONARY
  5
304
330
2D
100
AcDbDictionary
280
     1
281
     1
  3
ACAD_XREC_ROUNDTRIP
360
305
  0
DICTIONARY
  5
306
330
2E
100
AcDbDictionary
280
     1
281
     1
  3
ACAD_XREC_ROUNDTRIP
360
307
  0
DICTIONARY
  5
30C
330
31
100
AcDbDictionary
280
     1
281
     1
  3
ACAD_XREC_ROUNDTRIP
360
30D
  0
DICTIONARY
  5
320
330
3B
100
AcDbDictionary
280
     1
281
     1
  3
ACAD_XREC_ROUNDTRIP
360
321
  0
DICTIONARY
  5
31A
330
38
100
AcDbDictionary
280
     1
281
     1
  3
ACAD_XREC_ROUNDTRIP
360
31B
  0
DICTIONARY
  5
322
330
3C
100
AcDbDictionary
280
     1
281
     1
  3
ACAD_XREC_ROUNDTRIP
360
323
  0
DICTIONARY
  5
310
330
33
100
AcDbDictionary
280
     1
281
     1
  3
ACAD_XREC_ROUNDTRIP
360
311
  0
DICTIONARY
  5
32E
330
42
100
AcDbDictionary
280
     1
281
     1
  3
ACAD_XREC_ROUNDTRIP
360
32F
  0
DICTIONARY
  5
32C
330
41
100
AcDbDictionary
280
     1
281
     1
  3
ACAD_XREC_ROUNDTRIP
360
32D
  0
DICTIONARY
  5
326
330
3E
100
AcDbDictionary
280
     1
281
     1
  3
ACAD_XREC_ROUNDTRIP
360
327
  0
DICTIONARY
  5
328
330
3F
100
AcDbDictionary
280
     1
281
     1
  3
ACAD_XREC_ROUNDTRIP
360
329
  0
DICTIONARY
  5
318
330
37
100
AcDbDictionary
280
     1
281
     1
  3
ACAD_XREC_ROUNDTRIP
360
319
  0
DICTIONARY
  5
30A
330
30
100
AcDbDictionary
280
     1
281
     1
  3
ACAD_XREC_ROUNDTRIP
360
30B
  0
DICTIONARY
  5
32A
330
40
100
AcDbDictionary
280
     1
281
     1
  3
ACAD_XREC_ROUNDTRIP
360
32B
  0
XRECORD
  5
333
102
{ACAD_REACTORS
330
332
102
}
330
332
100
AcDbXrecord
280
     1
102
MATERIAL
148
0.0
149
0.0
149
0.0
 93
        0
 94
      127
282
     0
 72
     1
 77
     1
171
     1
175
     1
179
     1
273
     0
  0
XRECORD
  5
331
102
{ACAD_REACTORS
330
330
102
}
330
330
100
AcDbXrecord
280
     1
102
MATERIAL
148
0.0
149
0.0
149
0.0
 93
        0
 94
      127
282
     0
 72
     1
 77
     1
171
     1
175
     1
179
     1
273
     0
  0
XRECORD
  5
335
102
{ACAD_REACTORS
330
334
102
}
330
334
100
AcDbXrecord
280
     1
102
MATERIAL
148
0.0
149
0.0
149
0.0
 93
        0
 94
      127
282
     0
 72
     1
 77
     1
171
     1
175
     1
179
     1
273
     0
  0
XRECORD
  5
309
102
{ACAD_REACTORS
330
308
102
}
330
308
100
AcDbXrecord
280
     1
102
RTVSPropertyOp0
 70
     1
102
RTVSPropertyOp1
 70
     1
102
RTVSPropertyOp2
 70
     1
102
RTVSPropertyOp3
 70
     1
102
RTVSPropertyOp4
 70
     1
102
RTVSPropertyOp5
 70
     1
102
RTVSPropertyOp6
 70
     1
102
RTVSPropertyOp7
 70
     1
102
RTVSPropertyOp8
 70
     1
102
RTVSPropertyOp9
 70
     1
102
RTVSPropertyOp10
 70
     1
102
RTVSPropertyOp11
 70
     1
102
RTVSPropertyOp12
 70
     1
102
RTVSPropertyOp13
 70
     1
102
RTVSPropertyOp14
 70
     1
102
RTVSPropertyOp15
 70
     1
102
RTVSPropertyOp16
 70
     1
102
RTVSPropertyOp17
 70
     1
102
RTVSPropertyOp18
 70
     1
102
RTVSPropertyOp19
 70
     1
102
RTVSPropertyOp20
 70
     1
102
RTVSPropertyOp21
 70
     1
102
RTVSPropertyOp22
 70
     1
102
RTVSPropertyOp23
 70
     1
102
RTVSPropertyOp24
 70
     1
102
RTVSPropertyOp25
 70
     1
102
RTVSPropertyOp26
 70
     1
102
RTVSPropertyOp27
 70
     1
102
RTVSPropertyOp28
 70
     1
102
RTVSPropertyOp29
 70
     1
102
RTVSPropertyOp30
 70
     1
102
RTVSPropertyOp31
 70
     1
102
RTVSPropertyOp32
 70
     1
102
RTVSPropertyOp33
 70
     1
102
RTVSPropertyOp34
 70
     1
102
RTVSPropertyOp35
 70
     1
102
RTVSPropertyOp36
 70
     1
102
RTVSPropertyOp37
 70
     1
102
RTVSPropertyOp38
 70
     1
102
RTVSPropertyOp39
 70
     1
102
RTVSPropertyOp40
 70
     1
102
RTVSPropertyOp41
 70
     1
102
RTVSPropertyOp42
 70
     1
102
RTVSPropertyOp43
 70
     1
102
RTVSPropertyOp44
 70
     1
102
RTVSPropertyOp45
 70
     1
102
RTVSPropertyOp46
 70
     1
102
RTVSPropertyOp47
 70
     1
102
RTVSPropertyOp48
 70
     1
102
RTVSPropertyOp49
 70
     1
102
RTVSPropertyOp50
 70
     1
102
RTVSPropertyOp51
 70
     0
102
RTVSPropertyOp52
 70
     0
102
RTVSPropertyOp53
 70
     1
102
RTVSPropertyOp54
 70
     1
102
RTVSPropertyOp55
 70
     1
102
RTVSPropertyOp56
 70
     1
102
RTVSPropertyOp57
 70
     1
102
RTVSPost2010Prop28
280
     1
102
RTVSPost2010PropOp28
 70
     1
102
RTVSPost2010Prop29
280
     1
102
RTVSPost2010PropOp29
 70
     1
102
RTVSPost2010Prop30
280
     0
102
RTVSPost2010PropOp30
 70
     1
102
RTVSPost2010Prop31
280
     0
102
RTVSPost2010PropOp31
 70
     1
102
RTVSPost2010Prop32
280
     0
102
RTVSPost2010PropOp32
 70
     1
102
RTVSPost2010Prop33
280
     0
102
RTVSPost2010PropOp33
 70
     1
102
RTVSPost2010Prop34
280
     0
102
RTVSPost2010PropOp34
 70
     1
102
RTVSPost2010Prop35
280
     0
102
RTVSPost2010PropOp35
 70
     1
102
RTVSPost2010Prop36
280
     0
102
RTVSPost2010PropOp36
 70
     1
102
RTVSPost2010Prop37
 90
       50
102
RTVSPost2010PropOp37
 70
     1
102
RTVSPost2010Prop38
140
0.0
102
RTVSPost2010PropOp38
 70
     1
102
RTVSPost2010Prop39
140
1.0
102
RTVSPost2010PropOp39
 70
     1
102
RTVSPost2010Prop40
 90
        0
102
RTVSPost2010PropOp40
 70
     1
102
RTVSPost2010Prop41ColorIndex
 90
       18
102
RTVSPost2010Prop41ColorRGB
 90
        0
102
RTVSPost2010PropOp41
 70
     1
102
RTVSPost2010Prop42
 90
       50
102
RTVSPost2010PropOp42
 70
     1
102
RTVSPost2010Prop43
 90
        3
102
RTVSPost2010PropOp43
 70
     1
102
RTVSPost2010Prop44ColorIndex
 90
        5
102
RTVSPost2010Prop44ColorRGB
 90
      255
102
RTVSPost2010PropOp44
 70
     1
102
RTVSPost2010Prop45
280
     0
102
RTVSPost2010PropOp45
 70
     1
102
RTVSPost2010Prop46
 90
       50
102
RTVSPost2010PropOp46
 70
     1
102
RTVSPost2010Prop47
 90
       50
102
RTVSPost2010PropOp47
 70
     1
102
RTVSPost2010Prop48
 90
       50
102
RTVSPost2010PropOp48
 70
     1
102
RTVSPost2010Prop49
280
     0
102
RTVSPost2010PropOp49
 70
     1
102
RTVSPost2010Prop50
 90
       50
102
RTVSPost2010PropOp50
 70
     1
102
RTVSPost2010Prop51ColorIndex
 90
      256
102
RTVSPost2010Prop51ColorRGB
 90
-16777216
102
RTVSPost2010PropOp51
 70
     0
102
RTVSPost2010Prop52
140
1.0
102
RTVSPost2010PropOp52
 70
     0
102
RTVSPost2010Prop53
 90
        2
102
RTVSPost2010PropOp53
 70
     1
102
RTVSPost2010Prop54
  1
strokes_ogs.tif
102
RTVSPost2010PropOp54
 70
     1
102
RTVSPost2010Prop55
280
     0
102
RTVSPost2010PropOp55
 70
     1
102
RTVSPost2010Prop56
140
1.0
102
RTVSPost2010PropOp56
 70
     1
102
RTVSPost2010Prop57
140
1.0
102
RTVSPost2010PropOp57
 70
     1
  0
XRECORD
  5
30F
102
{ACAD_REACTORS
330
30E
102
}
330
30E
100
AcDbXrecord
280
     1
102
RTVSPropertyOp0
 70
     1
102
RTVSPropertyOp1
 70
     1
102
RTVSPropertyOp2
 70
     1
102
RTVSPropertyOp3
 70
     1
102
RTVSPropertyOp4
 70
     1
102
RTVSPropertyOp5
 70
     1
102
RTVSPropertyOp6
 70
     1
102
RTVSPropertyOp7
 70
     1
102
RTVSPropertyOp8
 70
     1
102
RTVSPropertyOp9
 70
     1
102
RTVSPropertyOp10
 70
     1
102
RTVSPropertyOp11
 70
     1
102
RTVSPropertyOp12
 70
     1
102
RTVSPropertyOp13
 70
     1
102
RTVSPropertyOp14
 70
     1
102
RTVSPropertyOp15
 70
     1
102
RTVSPropertyOp16
 70
     1
102
RTVSPropertyOp17
 70
     1
102
RTVSPropertyOp18
 70
     1
102
RTVSPropertyOp19
 70
     1
102
RTVSPropertyOp20
 70
     1
102
RTVSPropertyOp21
 70
     1
102
RTVSPropertyOp22
 70
     1
102
RTVSPropertyOp23
 70
     1
102
RTVSPropertyOp24
 70
     1
102
RTVSPropertyOp25
 70
     1
102
RTVSPropertyOp26
 70
     1
102
RTVSPropertyOp27
 70
     1
102
RTVSPropertyOp28
 70
     1
102
RTVSPropertyOp29
 70
     1
102
RTVSPropertyOp30
 70
     1
102
RTVSPropertyOp31
 70
     1
102
RTVSPropertyOp32
 70
     1
102
RTVSPropertyOp33
 70
     1
102
RTVSPropertyOp34
 70
     1
102
RTVSPropertyOp35
 70
     1
102
RTVSPropertyOp36
 70
     1
102
RTVSPropertyOp37
 70
     1
102
RTVSPropertyOp38
 70
     1
102
RTVSPropertyOp39
 70
     1
102
RTVSPropertyOp40
 70
     1
102
RTVSPropertyOp41
 70
     1
102
RTVSPropertyOp42
 70
     1
102
RTVSPropertyOp43
 70
     1
102
RTVSPropertyOp44
 70
     1
102
RTVSPropertyOp45
 70
     1
102
RTVSPropertyOp46
 70
     1
102
RTVSPropertyOp47
 70
     1
102
RTVSPropertyOp48
 70
     1
102
RTVSPropertyOp49
 70
     1
102
RTVSPropertyOp50
 70
     1
102
RTVSPropertyOp51
 70
     0
102
RTVSPropertyOp52
 70
     0
102
RTVSPropertyOp53
 70
     1
102
RTVSPropertyOp54
 70
     1
102
RTVSPropertyOp55
 70
     1
102
RTVSPropertyOp56
 70
     1
102
RTVSPropertyOp57
 70
     1
102
RTVSPost2010Prop28
280
     0
102
RTVSPost2010PropOp28
 70
     1
102
RTVSPost2010Prop29
280
     1
102
RTVSPost2010PropOp29
 70
     1
102
RTVSPost2010Prop30
280
     1
102
RTVSPost2010PropOp30
 70
     1
102
RTVSPost2010Prop31
280
     0
102
RTVSPost2010PropOp31
 70
     1
102
RTVSPost2010Prop32
280
     0
102
RTVSPost2010PropOp32
 70
     1
102
RTVSPost2010Prop33
280
     0
102
RTVSPost2010PropOp33
 70
     1
102
RTVSPost2010Prop34
280
     0
102
RTVSPost2010PropOp34
 70
     1
102
RTVSPost2010Prop35
280
     0
102
RTVSPost2010PropOp35
 70
     1
102
RTVSPost2010Prop36
280
     0
102
RTVSPost2010PropOp36
 70
     1
102
RTVSPost2010Prop37
 90
       50
102
RTVSPost2010PropOp37
 70
     1
102
RTVSPost2010Prop38
140
0.0
102
RTVSPost2010PropOp38
 70
     1
102
RTVSPost2010Prop39
140
1.0
102
RTVSPost2010PropOp39
 70
     1
102
RTVSPost2010Prop40
 90
        0
102
RTVSPost2010PropOp40
 70
     1
102
RTVSPost2010Prop41ColorIndex
 90
       18
102
RTVSPost2010Prop41ColorRGB
 90
        0
102
RTVSPost2010PropOp41
 70
     1
102
RTVSPost2010Prop42
 90
       50
102
RTVSPost2010PropOp42
 70
     1
102
RTVSPost2010Prop43
 90
        3
102
RTVSPost2010PropOp43
 70
     1
102
RTVSPost2010Prop44ColorIndex
 90
        5
102
RTVSPost2010Prop44ColorRGB
 90
      255
102
RTVSPost2010PropOp44
 70
     1
102
RTVSPost2010Prop45
280
     0
102
RTVSPost2010PropOp45
 70
     1
102
RTVSPost2010Prop46
 90
       50
102
RTVSPost2010PropOp46
 70
     1
102
RTVSPost2010Prop47
 90
       50
102
RTVSPost2010PropOp47
 70
     1
102
RTVSPost2010Prop48
 90
       50
102
RTVSPost2010PropOp48
 70
     1
102
RTVSPost2010Prop49
280
     0
102
RTVSPost2010PropOp49
 70
     1
102
RTVSPost2010Prop50
 90
       50
102
RTVSPost2010PropOp50
 70
     1
102
RTVSPost2010Prop51ColorIndex
 90
      256
102
RTVSPost2010Prop51ColorRGB
 90
-16777216
102
RTVSPost2010PropOp51
 70
     0
102
RTVSPost2010Prop52
140
1.0
102
RTVSPost2010PropOp52
 70
     0
102
RTVSPost2010Prop53
 90
        2
102
RTVSPost2010PropOp53
 70
     1
102
RTVSPost2010Prop54
  1
strokes_ogs.tif
102
RTVSPost2010PropOp54
 70
     1
102
RTVSPost2010Prop55
280
     0
102
RTVSPost2010PropOp55
 70
     1
102
RTVSPost2010Prop56
140
1.0
102
RTVSPost2010PropOp56
 70
     1
102
RTVSPost2010Prop57
140
1.0
102
RTVSPost2010PropOp57
 70
     1
  0
XRECORD
  5
317
102
{ACAD_REACTORS
330
316
102
}
330
316
100
AcDbXrecord
280
     1
102
RTVSPropertyOp0
 70
     1
102
RTVSPropertyOp1
 70
     1
102
RTVSPropertyOp2
 70
     1
102
RTVSPropertyOp3
 70
     1
102
RTVSPropertyOp4
 70
     1
102
RTVSPropertyOp5
 70
     1
102
RTVSPropertyOp6
 70
     1
102
RTVSPropertyOp7
 70
     1
102
RTVSPropertyOp8
 70
     1
102
RTVSPropertyOp9
 70
     1
102
RTVSPropertyOp10
 70
     1
102
RTVSPropertyOp11
 70
     1
102
RTVSPropertyOp12
 70
     1
102
RTVSPropertyOp13
 70
     1
102
RTVSPropertyOp14
 70
     1
102
RTVSPropertyOp15
 70
     1
102
RTVSPropertyOp16
 70
     1
102
RTVSPropertyOp17
 70
     1
102
RTVSPropertyOp18
 70
     1
102
RTVSPropertyOp19
 70
     1
102
RTVSPropertyOp20
 70
     1
102
RTVSPropertyOp21
 70
     1
102
RTVSPropertyOp22
 70
     1
102
RTVSPropertyOp23
 70
     1
102
RTVSPropertyOp24
 70
     1
102
RTVSPropertyOp25
 70
     1
102
RTVSPropertyOp26
 70
     1
102
RTVSPropertyOp27
 70
     1
102
RTVSPropertyOp28
 70
     1
102
RTVSPropertyOp29
 70
     1
102
RTVSPropertyOp30
 70
     1
102
RTVSPropertyOp31
 70
     1
102
RTVSPropertyOp32
 70
     1
102
RTVSPropertyOp33
 70
     1
102
RTVSPropertyOp34
 70
     1
102
RTVSPropertyOp35
 70
     1
102
RTVSPropertyOp36
 70
     1
102
RTVSPropertyOp37
 70
     1
102
RTVSPropertyOp38
 70
     1
102
RTVSPropertyOp39
 70
     1
102
RTVSPropertyOp40
 70
     1
102
RTVSPropertyOp41
 70
     1
102
RTVSPropertyOp42
 70
     1
102
RTVSPropertyOp43
 70
     1
102
RTVSPropertyOp44
 70
     1
102
RTVSPropertyOp45
 70
     1
102
RTVSPropertyOp46
 70
     1
102
RTVSPropertyOp47
 70
     1
102
RTVSPropertyOp48
 70
     1
102
RTVSPropertyOp49
 70
     1
102
RTVSPropertyOp50
 70
     1
102
RTVSPropertyOp51
 70
     0
102
RTVSPropertyOp52
 70
     0
102
RTVSPropertyOp53
 70
     1
102
RTVSPropertyOp54
 70
     1
102
RTVSPropertyOp55
 70
     1
102
RTVSPropertyOp56
 70
     1
102
RTVSPropertyOp57
 70
     1
102
RTVSPost2010Prop28
280
     0
102
RTVSPost2010PropOp28
 70
     1
102
RTVSPost2010Prop29
280
     1
102
RTVSPost2010PropOp29
 70
     1
102
RTVSPost2010Prop30
280
     1
102
RTVSPost2010PropOp30
 70
     1
102
RTVSPost2010Prop31
280
     0
102
RTVSPost2010PropOp31
 70
     1
102
RTVSPost2010Prop32
280
     0
102
RTVSPost2010PropOp32
 70
     1
102
RTVSPost2010Prop33
280
     0
102
RTVSPost2010PropOp33
 70
     1
102
RTVSPost2010Prop34
280
     0
102
RTVSPost2010PropOp34
 70
     1
102
RTVSPost2010Prop35
280
     0
102
RTVSPost2010PropOp35
 70
     1
102
RTVSPost2010Prop36
280
     0
102
RTVSPost2010PropOp36
 70
     1
102
RTVSPost2010Prop37
 90
       50
102
RTVSPost2010PropOp37
 70
     1
102
RTVSPost2010Prop38
140
0.0
102
RTVSPost2010PropOp38
 70
     1
102
RTVSPost2010Prop39
140
1.0
102
RTVSPost2010PropOp39
 70
     1
102
RTVSPost2010Prop40
 90
        0
102
RTVSPost2010PropOp40
 70
     1
102
RTVSPost2010Prop41ColorIndex
 90
       18
102
RTVSPost2010Prop41ColorRGB
 90
        0
102
RTVSPost2010PropOp41
 70
     1
102
RTVSPost2010Prop42
 90
       50
102
RTVSPost2010PropOp42
 70
     1
102
RTVSPost2010Prop43
 90
        3
102
RTVSPost2010PropOp43
 70
     1
102
RTVSPost2010Prop44ColorIndex
 90
        5
102
RTVSPost2010Prop44ColorRGB
 90
      255
102
RTVSPost2010PropOp44
 70
     1
102
RTVSPost2010Prop45
280
     0
102
RTVSPost2010PropOp45
 70
     1
102
RTVSPost2010Prop46
 90
       50
102
RTVSPost2010PropOp46
 70
     1
102
RTVSPost2010Prop47
 90
       50
102
RTVSPost2010PropOp47
 70
     1
102
RTVSPost2010Prop48
 90
       50
102
RTVSPost2010PropOp48
 70
     1
102
RTVSPost2010Prop49
280
     0
102
RTVSPost2010PropOp49
 70
     1
102
RTVSPost2010Prop50
 90
       50
102
RTVSPost2010PropOp50
 70
     1
102
RTVSPost2010Prop51ColorIndex
 90
      256
102
RTVSPost2010Prop51ColorRGB
 90
-16777216
102
RTVSPost2010PropOp51
 70
     0
102
RTVSPost2010Prop52
140
1.0
102
RTVSPost2010PropOp52
 70
     0
102
RTVSPost2010Prop53
 90
        2
102
RTVSPost2010PropOp53
 70
     1
102
RTVSPost2010Prop54
  1
strokes_ogs.tif
102
RTVSPost2010PropOp54
 70
     1
102
RTVSPost2010Prop55
280
     0
102
RTVSPost2010PropOp55
 70
     1
102
RTVSPost2010Prop56
140
1.0
102
RTVSPost2010PropOp56
 70
     1
102
RTVSPost2010Prop57
140
1.0
102
RTVSPost2010PropOp57
 70
     1
  0
XRECORD
  5
31F
102
{ACAD_REACTORS
330
31E
102
}
330
31E
100
AcDbXrecord
280
     1
102
RTVSPropertyOp0
 70
     1
102
RTVSPropertyOp1
 70
     1
102
RTVSPropertyOp2
 70
     1
102
RTVSPropertyOp3
 70
     1
102
RTVSPropertyOp4
 70
     1
102
RTVSPropertyOp5
 70
     1
102
RTVSPropertyOp6
 70
     1
102
RTVSPropertyOp7
 70
     1
102
RTVSPropertyOp8
 70
     1
102
RTVSPropertyOp9
 70
     1
102
RTVSPropertyOp10
 70
     1
102
RTVSPropertyOp11
 70
     1
102
RTVSPropertyOp12
 70
     1
102
RTVSPropertyOp13
 70
     1
102
RTVSPropertyOp14
 70
     1
102
RTVSPropertyOp15
 70
     1
102
RTVSPropertyOp16
 70
     1
102
RTVSPropertyOp17
 70
     1
102
RTVSPropertyOp18
 70
     1
102
RTVSPropertyOp19
 70
     1
102
RTVSPropertyOp20
 70
     1
102
RTVSPropertyOp21
 70
     1
102
RTVSPropertyOp22
 70
     1
102
RTVSPropertyOp23
 70
     1
102
RTVSPropertyOp24
 70
     1
102
RTVSPropertyOp25
 70
     1
102
RTVSPropertyOp26
 70
     1
102
RTVSPropertyOp27
 70
     1
102
RTVSPropertyOp28
 70
     1
102
RTVSPropertyOp29
 70
     1
102
RTVSPropertyOp30
 70
     1
102
RTVSPropertyOp31
 70
     1
102
RTVSPropertyOp32
 70
     1
102
RTVSPropertyOp33
 70
     1
102
RTVSPropertyOp34
 70
     1
102
RTVSPropertyOp35
 70
     1
102
RTVSPropertyOp36
 70
     1
102
RTVSPropertyOp37
 70
     1
102
RTVSPropertyOp38
 70
     1
102
RTVSPropertyOp39
 70
     1
102
RTVSPropertyOp40
 70
     1
102
RTVSPropertyOp41
 70
     1
102
RTVSPropertyOp42
 70
     1
102
RTVSPropertyOp43
 70
     1
102
RTVSPropertyOp44
 70
     1
102
RTVSPropertyOp45
 70
     1
102
RTVSPropertyOp46
 70
     1
102
RTVSPropertyOp47
 70
     1
102
RTVSPropertyOp48
 70
     1
102
RTVSPropertyOp49
 70
     1
102
RTVSPropertyOp50
 70
     1
102
RTVSPropertyOp51
 70
     0
102
RTVSPropertyOp52
 70
     0
102
RTVSPropertyOp53
 70
     1
102
RTVSPropertyOp54
 70
     1
102
RTVSPropertyOp55
 70
     1
102
RTVSPropertyOp56
 70
     1
102
RTVSPropertyOp57
 70
     1
102
RTVSPost2010Prop28
280
     0
102
RTVSPost2010PropOp28
 70
     1
102
RTVSPost2010Prop29
280
     1
102
RTVSPost2010PropOp29
 70
     1
102
RTVSPost2010Prop30
280
     1
102
RTVSPost2010PropOp30
 70
     1
102
RTVSPost2010Prop31
280
     0
102
RTVSPost2010PropOp31
 70
     1
102
RTVSPost2010Prop32
280
     0
102
RTVSPost2010PropOp32
 70
     1
102
RTVSPost2010Prop33
280
     0
102
RTVSPost2010PropOp33
 70
     1
102
RTVSPost2010Prop34
280
     0
102
RTVSPost2010PropOp34
 70
     1
102
RTVSPost2010Prop35
280
     0
102
RTVSPost2010PropOp35
 70
     1
102
RTVSPost2010Prop36
280
     0
102
RTVSPost2010PropOp36
 70
     1
102
RTVSPost2010Prop37
 90
       50
102
RTVSPost2010PropOp37
 70
     1
102
RTVSPost2010Prop38
140
0.0
102
RTVSPost2010PropOp38
 70
     1
102
RTVSPost2010Prop39
140
1.0
102
RTVSPost2010PropOp39
 70
     1
102
RTVSPost2010Prop40
 90
        0
102
RTVSPost2010PropOp40
 70
     1
102
RTVSPost2010Prop41ColorIndex
 90
       18
102
RTVSPost2010Prop41ColorRGB
 90
        0
102
RTVSPost2010PropOp41
 70
     1
102
RTVSPost2010Prop42
 90
       50
102
RTVSPost2010PropOp42
 70
     1
102
RTVSPost2010Prop43
 90
        3
102
RTVSPost2010PropOp43
 70
     1
102
RTVSPost2010Prop44ColorIndex
 90
        5
102
RTVSPost2010Prop44ColorRGB
 90
      255
102
RTVSPost2010PropOp44
 70
     1
102
RTVSPost2010Prop45
280
     0
102
RTVSPost2010PropOp45
 70
     1
102
RTVSPost2010Prop46
 90
       50
102
RTVSPost2010PropOp46
 70
     1
102
RTVSPost2010Prop47
 90
       50
102
RTVSPost2010PropOp47
 70
     1
102
RTVSPost2010Prop48
 90
       50
102
RTVSPost2010PropOp48
 70
     1
102
RTVSPost2010Prop49
280
     0
102
RTVSPost2010PropOp49
 70
     1
102
RTVSPost2010Prop50
 90
       50
102
RTVSPost2010PropOp50
 70
     1
102
RTVSPost2010Prop51ColorIndex
 90
      256
102
RTVSPost2010Prop51ColorRGB
 90
-16777216
102
RTVSPost2010PropOp51
 70
     0
102
RTVSPost2010Prop52
140
1.0
102
RTVSPost2010PropOp52
 70
     0
102
RTVSPost2010Prop53
 90
        2
102
RTVSPost2010PropOp53
 70
     1
102
RTVSPost2010Prop54
  1
strokes_ogs.tif
102
RTVSPost2010PropOp54
 70
     1
102
RTVSPost2010Prop55
280
     0
102
RTVSPost2010PropOp55
 70
     1
102
RTVSPost2010Prop56
140
1.0
102
RTVSPost2010PropOp56
 70
     1
102
RTVSPost2010Prop57
140
1.0
102
RTVSPost2010PropOp57
 70
     1
  0
XRECORD
  5
313
102
{ACAD_REACTORS
330
312
102
}
330
312
100
AcDbXrecord
280
     1
102
RTVSPropertyOp0
 70
     1
102
RTVSPropertyOp1
 70
     1
102
RTVSPropertyOp2
 70
     1
102
RTVSPropertyOp3
 70
     1
102
RTVSPropertyOp4
 70
     1
102
RTVSPropertyOp5
 70
     1
102
RTVSPropertyOp6
 70
     1
102
RTVSPropertyOp7
 70
     1
102
RTVSPropertyOp8
 70
     1
102
RTVSPropertyOp9
 70
     1
102
RTVSPropertyOp10
 70
     1
102
RTVSPropertyOp11
 70
     1
102
RTVSPropertyOp12
 70
     1
102
RTVSPropertyOp13
 70
     1
102
RTVSPropertyOp14
 70
     1
102
RTVSPropertyOp15
 70
     1
102
RTVSPropertyOp16
 70
     1
102
RTVSPropertyOp17
 70
     1
102
RTVSPropertyOp18
 70
     1
102
RTVSPropertyOp19
 70
     1
102
RTVSPropertyOp20
 70
     1
102
RTVSPropertyOp21
 70
     1
102
RTVSPropertyOp22
 70
     1
102
RTVSPropertyOp23
 70
     1
102
RTVSPropertyOp24
 70
     1
102
RTVSPropertyOp25
 70
     1
102
RTVSPropertyOp26
 70
     1
102
RTVSPropertyOp27
 70
     1
102
RTVSPropertyOp28
 70
     1
102
RTVSPropertyOp29
 70
     1
102
RTVSPropertyOp30
 70
     1
102
RTVSPropertyOp31
 70
     1
102
RTVSPropertyOp32
 70
     1
102
RTVSPropertyOp33
 70
     1
102
RTVSPropertyOp34
 70
     1
102
RTVSPropertyOp35
 70
     1
102
RTVSPropertyOp36
 70
     1
102
RTVSPropertyOp37
 70
     1
102
RTVSPropertyOp38
 70
     1
102
RTVSPropertyOp39
 70
     1
102
RTVSPropertyOp40
 70
     1
102
RTVSPropertyOp41
 70
     1
102
RTVSPropertyOp42
 70
     1
102
RTVSPropertyOp43
 70
     1
102
RTVSPropertyOp44
 70
     1
102
RTVSPropertyOp45
 70
     1
102
RTVSPropertyOp46
 70
     1
102
RTVSPropertyOp47
 70
     1
102
RTVSPropertyOp48
 70
     1
102
RTVSPropertyOp49
 70
     1
102
RTVSPropertyOp50
 70
     1
102
RTVSPropertyOp51
 70
     0
102
RTVSPropertyOp52
 70
     0
102
RTVSPropertyOp53
 70
     1
102
RTVSPropertyOp54
 70
     1
102
RTVSPropertyOp55
 70
     1
102
RTVSPropertyOp56
 70
     1
102
RTVSPropertyOp57
 70
     1
102
RTVSPost2010Prop28
280
     0
102
RTVSPost2010PropOp28
 70
     1
102
RTVSPost2010Prop29
280
     1
102
RTVSPost2010PropOp29
 70
     1
102
RTVSPost2010Prop30
280
     1
102
RTVSPost2010PropOp30
 70
     1
102
RTVSPost2010Prop31
280
     0
102
RTVSPost2010PropOp31
 70
     1
102
RTVSPost2010Prop32
280
     0
102
RTVSPost2010PropOp32
 70
     1
102
RTVSPost2010Prop33
280
     0
102
RTVSPost2010PropOp33
 70
     1
102
RTVSPost2010Prop34
280
     0
102
RTVSPost2010PropOp34
 70
     1
102
RTVSPost2010Prop35
280
     0
102
RTVSPost2010PropOp35
 70
     1
102
RTVSPost2010Prop36
280
     0
102
RTVSPost2010PropOp36
 70
     1
102
RTVSPost2010Prop37
 90
       50
102
RTVSPost2010PropOp37
 70
     1
102
RTVSPost2010Prop38
140
0.0
102
RTVSPost2010PropOp38
 70
     1
102
RTVSPost2010Prop39
140
1.0
102
RTVSPost2010PropOp39
 70
     1
102
RTVSPost2010Prop40
 90
        0
102
RTVSPost2010PropOp40
 70
     1
102
RTVSPost2010Prop41ColorIndex
 90
       18
102
RTVSPost2010Prop41ColorRGB
 90
        0
102
RTVSPost2010PropOp41
 70
     1
102
RTVSPost2010Prop42
 90
       50
102
RTVSPost2010PropOp42
 70
     1
102
RTVSPost2010Prop43
 90
        3
102
RTVSPost2010PropOp43
 70
     1
102
RTVSPost2010Prop44ColorIndex
 90
        5
102
RTVSPost2010Prop44ColorRGB
 90
      255
102
RTVSPost2010PropOp44
 70
     1
102
RTVSPost2010Prop45
280
     0
102
RTVSPost2010PropOp45
 70
     1
102
RTVSPost2010Prop46
 90
       50
102
RTVSPost2010PropOp46
 70
     1
102
RTVSPost2010Prop47
 90
       50
102
RTVSPost2010PropOp47
 70
     1
102
RTVSPost2010Prop48
 90
       50
102
RTVSPost2010PropOp48
 70
     1
102
RTVSPost2010Prop49
280
     0
102
RTVSPost2010PropOp49
 70
     1
102
RTVSPost2010Prop50
 90
       50
102
RTVSPost2010PropOp50
 70
     1
102
RTVSPost2010Prop51ColorIndex
 90
      256
102
RTVSPost2010Prop51ColorRGB
 90
-16777216
102
RTVSPost2010PropOp51
 70
     0
102
RTVSPost2010Prop52
140
1.0
102
RTVSPost2010PropOp52
 70
     0
102
RTVSPost2010Prop53
 90
        2
102
RTVSPost2010PropOp53
 70
     1
102
RTVSPost2010Prop54
  1
strokes_ogs.tif
102
RTVSPost2010PropOp54
 70
     1
102
RTVSPost2010Prop55
280
     0
102
RTVSPost2010PropOp55
 70
     1
102
RTVSPost2010Prop56
140
1.0
102
RTVSPost2010PropOp56
 70
     1
102
RTVSPost2010Prop57
140
1.0
102
RTVSPost2010PropOp57
 70
     1
  0
XRECORD
  5
315
102
{ACAD_REACTORS
330
314
102
}
330
314
100
AcDbXrecord
280
     1
102
RTVSPropertyOp0
 70
     1
102
RTVSPropertyOp1
 70
     1
102
RTVSPropertyOp2
 70
     1
102
RTVSPropertyOp3
 70
     1
102
RTVSPropertyOp4
 70
     1
102
RTVSPropertyOp5
 70
     1
102
RTVSPropertyOp6
 70
     1
102
RTVSPropertyOp7
 70
     1
102
RTVSPropertyOp8
 70
     1
102
RTVSPropertyOp9
 70
     1
102
RTVSPropertyOp10
 70
     1
102
RTVSPropertyOp11
 70
     1
102
RTVSPropertyOp12
 70
     1
102
RTVSPropertyOp13
 70
     1
102
RTVSPropertyOp14
 70
     1
102
RTVSPropertyOp15
 70
     1
102
RTVSPropertyOp16
 70
     1
102
RTVSPropertyOp17
 70
     1
102
RTVSPropertyOp18
 70
     1
102
RTVSPropertyOp19
 70
     1
102
RTVSPropertyOp20
 70
     1
102
RTVSPropertyOp21
 70
     1
102
RTVSPropertyOp22
 70
     1
102
RTVSPropertyOp23
 70
     1
102
RTVSPropertyOp24
 70
     1
102
RTVSPropertyOp25
 70
     1
102
RTVSPropertyOp26
 70
     1
102
RTVSPropertyOp27
 70
     1
102
RTVSPropertyOp28
 70
     1
102
RTVSPropertyOp29
 70
     1
102
RTVSPropertyOp30
 70
     1
102
RTVSPropertyOp31
 70
     1
102
RTVSPropertyOp32
 70
     1
102
RTVSPropertyOp33
 70
     1
102
RTVSPropertyOp34
 70
     1
102
RTVSPropertyOp35
 70
     1
102
RTVSPropertyOp36
 70
     1
102
RTVSPropertyOp37
 70
     1
102
RTVSPropertyOp38
 70
     1
102
RTVSPropertyOp39
 70
     1
102
RTVSPropertyOp40
 70
     1
102
RTVSPropertyOp41
 70
     1
102
RTVSPropertyOp42
 70
     1
102
RTVSPropertyOp43
 70
     1
102
RTVSPropertyOp44
 70
     1
102
RTVSPropertyOp45
 70
     1
102
RTVSPropertyOp46
 70
     1
102
RTVSPropertyOp47
 70
     1
102
RTVSPropertyOp48
 70
     1
102
RTVSPropertyOp49
 70
     1
102
RTVSPropertyOp50
 70
     1
102
RTVSPropertyOp51
 70
     0
102
RTVSPropertyOp52
 70
     0
102
RTVSPropertyOp53
 70
     1
102
RTVSPropertyOp54
 70
     1
102
RTVSPropertyOp55
 70
     1
102
RTVSPropertyOp56
 70
     1
102
RTVSPropertyOp57
 70
     1
102
RTVSPost2010Prop28
280
     0
102
RTVSPost2010PropOp28
 70
     1
102
RTVSPost2010Prop29
280
     1
102
RTVSPost2010PropOp29
 70
     1
102
RTVSPost2010Prop30
280
     1
102
RTVSPost2010PropOp30
 70
     1
102
RTVSPost2010Prop31
280
     0
102
RTVSPost2010PropOp31
 70
     1
102
RTVSPost2010Prop32
280
     0
102
RTVSPost2010PropOp32
 70
     1
102
RTVSPost2010Prop33
280
     0
102
RTVSPost2010PropOp33
 70
     1
102
RTVSPost2010Prop34
280
     0
102
RTVSPost2010PropOp34
 70
     1
102
RTVSPost2010Prop35
280
     0
102
RTVSPost2010PropOp35
 70
     1
102
RTVSPost2010Prop36
280
     0
102
RTVSPost2010PropOp36
 70
     1
102
RTVSPost2010Prop37
 90
       50
102
RTVSPost2010PropOp37
 70
     1
102
RTVSPost2010Prop38
140
0.0
102
RTVSPost2010PropOp38
 70
     1
102
RTVSPost2010Prop39
140
1.0
102
RTVSPost2010PropOp39
 70
     1
102
RTVSPost2010Prop40
 90
        0
102
RTVSPost2010PropOp40
 70
     1
102
RTVSPost2010Prop41ColorIndex
 90
       18
102
RTVSPost2010Prop41ColorRGB
 90
        0
102
RTVSPost2010PropOp41
 70
     1
102
RTVSPost2010Prop42
 90
       50
102
RTVSPost2010PropOp42
 70
     1
102
RTVSPost2010Prop43
 90
        3
102
RTVSPost2010PropOp43
 70
     1
102
RTVSPost2010Prop44ColorIndex
 90
        5
102
RTVSPost2010Prop44ColorRGB
 90
      255
102
RTVSPost2010PropOp44
 70
     1
102
RTVSPost2010Prop45
280
     0
102
RTVSPost2010PropOp45
 70
     1
102
RTVSPost2010Prop46
 90
       50
102
RTVSPost2010PropOp46
 70
     1
102
RTVSPost2010Prop47
 90
       50
102
RTVSPost2010PropOp47
 70
     1
102
RTVSPost2010Prop48
 90
       50
102
RTVSPost2010PropOp48
 70
     1
102
RTVSPost2010Prop49
280
     0
102
RTVSPost2010PropOp49
 70
     1
102
RTVSPost2010Prop50
 90
       50
102
RTVSPost2010PropOp50
 70
     1
102
RTVSPost2010Prop51ColorIndex
 90
      256
102
RTVSPost2010Prop51ColorRGB
 90
-16777216
102
RTVSPost2010PropOp51
 70
     0
102
RTVSPost2010Prop52
140
1.0
102
RTVSPost2010PropOp52
 70
     0
102
RTVSPost2010Prop53
 90
        2
102
RTVSPost2010PropOp53
 70
     1
102
RTVSPost2010Prop54
  1
strokes_ogs.tif
102
RTVSPost2010PropOp54
 70
     1
102
RTVSPost2010Prop55
280
     0
102
RTVSPost2010PropOp55
 70
     1
102
RTVSPost2010Prop56
140
1.0
102
RTVSPost2010PropOp56
 70
     1
102
RTVSPost2010Prop57
140
1.0
102
RTVSPost2010PropOp57
 70
     1
  0
XRECORD
  5
325
102
{ACAD_REACTORS
330
324
102
}
330
324
100
AcDbXrecord
280
     1
102
RTVSPropertyOp0
 70
     0
102
RTVSPropertyOp1
 70
     0
102
RTVSPropertyOp2
 70
     0
102
RTVSPropertyOp3
 70
     0
102
RTVSPropertyOp4
 70
     0
102
RTVSPropertyOp5
 70
     0
102
RTVSPropertyOp6
 70
     0
102
RTVSPropertyOp7
 70
     0
102
RTVSPropertyOp8
 70
     0
102
RTVSPropertyOp9
 70
     0
102
RTVSPropertyOp10
 70
     0
102
RTVSPropertyOp11
 70
     0
102
RTVSPropertyOp12
 70
     0
102
RTVSPropertyOp13
 70
     0
102
RTVSPropertyOp14
 70
     2
102
RTVSPropertyOp15
 70
     0
102
RTVSPropertyOp16
 70
     0
102
RTVSPropertyOp17
 70
     0
102
RTVSPropertyOp18
 70
     0
102
RTVSPropertyOp19
 70
     0
102
RTVSPropertyOp20
 70
     0
102
RTVSPropertyOp21
 70
     0
102
RTVSPropertyOp22
 70
     0
102
RTVSPropertyOp23
 70
     0
102
RTVSPropertyOp24
 70
     0
102
RTVSPropertyOp25
 70
     0
102
RTVSPropertyOp26
 70
     0
102
RTVSPropertyOp27
 70
     0
102
RTVSPropertyOp28
 70
     0
102
RTVSPropertyOp29
 70
     0
102
RTVSPropertyOp30
 70
     0
102
RTVSPropertyOp31
 70
     0
102
RTVSPropertyOp32
 70
     0
102
RTVSPropertyOp33
 70
     0
102
RTVSPropertyOp34
 70
     0
102
RTVSPropertyOp35
 70
     0
102
RTVSPropertyOp36
 70
     0
102
RTVSPropertyOp37
 70
     0
102
RTVSPropertyOp38
 70
     0
102
RTVSPropertyOp39
 70
     0
102
RTVSPropertyOp40
 70
     0
102
RTVSPropertyOp41
 70
     0
102
RTVSPropertyOp42
 70
     0
102
RTVSPropertyOp43
 70
     0
102
RTVSPropertyOp44
 70
     0
102
RTVSPropertyOp45
 70
     0
102
RTVSPropertyOp46
 70
     0
102
RTVSPropertyOp47
 70
     0
102
RTVSPropertyOp48
 70
     0
102
RTVSPropertyOp49
 70
     0
102
RTVSPropertyOp50
 70
     0
102
RTVSPropertyOp51
 70
     0
102
RTVSPropertyOp52
 70
     0
102
RTVSPropertyOp53
 70
     0
102
RTVSPropertyOp54
 70
     0
102
RTVSPropertyOp55
 70
     0
102
RTVSPropertyOp56
 70
     0
102
RTVSPropertyOp57
 70
     0
102
RTVSPost2010Prop28
280
     0
102
RTVSPost2010PropOp28
 70
     0
102
RTVSPost2010Prop29
280
     1
102
RTVSPost2010PropOp29
 70
     0
102
RTVSPost2010Prop30
280
     1
102
RTVSPost2010PropOp30
 70
     0
102
RTVSPost2010Prop31
280
     0
102
RTVSPost2010PropOp31
 70
     0
102
RTVSPost2010Prop32
280
     0
102
RTVSPost2010PropOp32
 70
     0
102
RTVSPost2010Prop33
280
     0
102
RTVSPost2010PropOp33
 70
     0
102
RTVSPost2010Prop34
280
     0
102
RTVSPost2010PropOp34
 70
     0
102
RTVSPost2010Prop35
280
     0
102
RTVSPost2010PropOp35
 70
     0
102
RTVSPost2010Prop36
280
     0
102
RTVSPost2010PropOp36
 70
     0
102
RTVSPost2010Prop37
 90
       50
102
RTVSPost2010PropOp37
 70
     0
102
RTVSPost2010Prop38
140
0.0
102
RTVSPost2010PropOp38
 70
     0
102
RTVSPost2010Prop39
140
1.0
102
RTVSPost2010PropOp39
 70
     0
102
RTVSPost2010Prop40
 90
        0
102
RTVSPost2010PropOp40
 70
     0
102
RTVSPost2010Prop41ColorIndex
 90
       18
102
RTVSPost2010Prop41ColorRGB
 90
        0
102
RTVSPost2010PropOp41
 70
     0
102
RTVSPost2010Prop42
 90
       50
102
RTVSPost2010PropOp42
 70
     0
102
RTVSPost2010Prop43
 90
        3
102
RTVSPost2010PropOp43
 70
     0
102
RTVSPost2010Prop44ColorIndex
 90
        5
102
RTVSPost2010Prop44ColorRGB
 90
      255
102
RTVSPost2010PropOp44
 70
     0
102
RTVSPost2010Prop45
280
     0
102
RTVSPost2010PropOp45
 70
     0
102
RTVSPost2010Prop46
 90
       50
102
RTVSPost2010PropOp46
 70
     0
102
RTVSPost2010Prop47
 90
       50
102
RTVSPost2010PropOp47
 70
     0
102
RTVSPost2010Prop48
 90
       50
102
RTVSPost2010PropOp48
 70
     0
102
RTVSPost2010Prop49
280
     0
102
RTVSPost2010PropOp49
 70
     0
102
RTVSPost2010Prop50
 90
       50
102
RTVSPost2010PropOp50
 70
     0
102
RTVSPost2010Prop51ColorIndex
 90
      256
102
RTVSPost2010Prop51ColorRGB
 90
-16777216
102
RTVSPost2010PropOp51
 70
     0
102
RTVSPost2010Prop52
140
1.0
102
RTVSPost2010PropOp52
 70
     0
102
RTVSPost2010Prop53
 90
        2
102
RTVSPost2010PropOp53
 70
     0
102
RTVSPost2010Prop54
  1
strokes_ogs.tif
102
RTVSPost2010PropOp54
 70
     0
102
RTVSPost2010Prop55
280
     0
102
RTVSPost2010PropOp55
 70
     0
102
RTVSPost2010Prop56
140
1.0
102
RTVSPost2010PropOp56
 70
     0
102
RTVSPost2010Prop57
140
1.0
102
RTVSPost2010PropOp57
 70
     0
  0
XRECORD
  5
31D
102
{ACAD_REACTORS
330
31C
102
}
330
31C
100
AcDbXrecord
280
     1
102
RTVSPropertyOp0
 70
     1
102
RTVSPropertyOp1
 70
     1
102
RTVSPropertyOp2
 70
     1
102
RTVSPropertyOp3
 70
     1
102
RTVSPropertyOp4
 70
     1
102
RTVSPropertyOp5
 70
     1
102
RTVSPropertyOp6
 70
     1
102
RTVSPropertyOp7
 70
     1
102
RTVSPropertyOp8
 70
     1
102
RTVSPropertyOp9
 70
     1
102
RTVSPropertyOp10
 70
     1
102
RTVSPropertyOp11
 70
     1
102
RTVSPropertyOp12
 70
     1
102
RTVSPropertyOp13
 70
     1
102
RTVSPropertyOp14
 70
     1
102
RTVSPropertyOp15
 70
     1
102
RTVSPropertyOp16
 70
     1
102
RTVSPropertyOp17
 70
     1
102
RTVSPropertyOp18
 70
     1
102
RTVSPropertyOp19
 70
     1
102
RTVSPropertyOp20
 70
     1
102
RTVSPropertyOp21
 70
     1
102
RTVSPropertyOp22
 70
     1
102
RTVSPropertyOp23
 70
     1
102
RTVSPropertyOp24
 70
     1
102
RTVSPropertyOp25
 70
     1
102
RTVSPropertyOp26
 70
     1
102
RTVSPropertyOp27
 70
     1
102
RTVSPropertyOp28
 70
     1
102
RTVSPropertyOp29
 70
     1
102
RTVSPropertyOp30
 70
     1
102
RTVSPropertyOp31
 70
     1
102
RTVSPropertyOp32
 70
     1
102
RTVSPropertyOp33
 70
     1
102
RTVSPropertyOp34
 70
     1
102
RTVSPropertyOp35
 70
     1
102
RTVSPropertyOp36
 70
     1
102
RTVSPropertyOp37
 70
     1
102
RTVSPropertyOp38
 70
     1
102
RTVSPropertyOp39
 70
     1
102
RTVSPropertyOp40
 70
     1
102
RTVSPropertyOp41
 70
     1
102
RTVSPropertyOp42
 70
     1
102
RTVSPropertyOp43
 70
     1
102
RTVSPropertyOp44
 70
     1
102
RTVSPropertyOp45
 70
     1
102
RTVSPropertyOp46
 70
     1
102
RTVSPropertyOp47
 70
     1
102
RTVSPropertyOp48
 70
     1
102
RTVSPropertyOp49
 70
     1
102
RTVSPropertyOp50
 70
     1
102
RTVSPropertyOp51
 70
     0
102
RTVSPropertyOp52
 70
     0
102
RTVSPropertyOp53
 70
     1
102
RTVSPropertyOp54
 70
     1
102
RTVSPropertyOp55
 70
     1
102
RTVSPropertyOp56
 70
     1
102
RTVSPropertyOp57
 70
     1
102
RTVSPost2010Prop28
280
     0
102
RTVSPost2010PropOp28
 70
     1
102
RTVSPost2010Prop29
280
     1
102
RTVSPost2010PropOp29
 70
     1
102
RTVSPost2010Prop30
280
     1
102
RTVSPost2010PropOp30
 70
     1
102
RTVSPost2010Prop31
280
     0
102
RTVSPost2010PropOp31
 70
     1
102
RTVSPost2010Prop32
280
     0
102
RTVSPost2010PropOp32
 70
     1
102
RTVSPost2010Prop33
280
     0
102
RTVSPost2010PropOp33
 70
     1
102
RTVSPost2010Prop34
280
     0
102
RTVSPost2010PropOp34
 70
     1
102
RTVSPost2010Prop35
280
     0
102
RTVSPost2010PropOp35
 70
     1
102
RTVSPost2010Prop36
280
     0
102
RTVSPost2010PropOp36
 70
     1
102
RTVSPost2010Prop37
 90
       50
102
RTVSPost2010PropOp37
 70
     1
102
RTVSPost2010Prop38
140
0.0
102
RTVSPost2010PropOp38
 70
     1
102
RTVSPost2010Prop39
140
1.0
102
RTVSPost2010PropOp39
 70
     1
102
RTVSPost2010Prop40
 90
        0
102
RTVSPost2010PropOp40
 70
     1
102
RTVSPost2010Prop41ColorIndex
 90
       18
102
RTVSPost2010Prop41ColorRGB
 90
        0
102
RTVSPost2010PropOp41
 70
     1
102
RTVSPost2010Prop42
 90
       50
102
RTVSPost2010PropOp42
 70
     1
102
RTVSPost2010Prop43
 90
        3
102
RTVSPost2010PropOp43
 70
     1
102
RTVSPost2010Prop44ColorIndex
 90
        5
102
RTVSPost2010Prop44ColorRGB
 90
      255
102
RTVSPost2010PropOp44
 70
     1
102
RTVSPost2010Prop45
280
     0
102
RTVSPost2010PropOp45
 70
     1
102
RTVSPost2010Prop46
 90
       50
102
RTVSPost2010PropOp46
 70
     1
102
RTVSPost2010Prop47
 90
       50
102
RTVSPost2010PropOp47
 70
     1
102
RTVSPost2010Prop48
 90
       50
102
RTVSPost2010PropOp48
 70
     1
102
RTVSPost2010Prop49
280
     0
102
RTVSPost2010PropOp49
 70
     1
102
RTVSPost2010Prop50
 90
       50
102
RTVSPost2010PropOp50
 70
     1
102
RTVSPost2010Prop51ColorIndex
 90
      256
102
RTVSPost2010Prop51ColorRGB
 90
-16777216
102
RTVSPost2010PropOp51
 70
     0
102
RTVSPost2010Prop52
140
1.0
102
RTVSPost2010PropOp52
 70
     0
102
RTVSPost2010Prop53
 90
        2
102
RTVSPost2010PropOp53
 70
     1
102
RTVSPost2010Prop54
  1
strokes_ogs.tif
102
RTVSPost2010PropOp54
 70
     1
102
RTVSPost2010Prop55
280
     0
102
RTVSPost2010PropOp55
 70
     1
102
RTVSPost2010Prop56
140
1.0
102
RTVSPost2010PropOp56
 70
     1
102
RTVSPost2010Prop57
140
1.0
102
RTVSPost2010PropOp57
 70
     1
  0
XRECORD
  5
301
102
{ACAD_REACTORS
330
300
102
}
330
300
100
AcDbXrecord
280
     1
102
RTVSPropertyOp0
 70
     1
102
RTVSPropertyOp1
 70
     1
102
RTVSPropertyOp2
 70
     1
102
RTVSPropertyOp3
 70
     1
102
RTVSPropertyOp4
 70
     1
102
RTVSPropertyOp5
 70
     1
102
RTVSPropertyOp6
 70
     1
102
RTVSPropertyOp7
 70
     1
102
RTVSPropertyOp8
 70
     1
102
RTVSPropertyOp9
 70
     1
102
RTVSPropertyOp10
 70
     1
102
RTVSPropertyOp11
 70
     1
102
RTVSPropertyOp12
 70
     1
102
RTVSPropertyOp13
 70
     1
102
RTVSPropertyOp14
 70
     1
102
RTVSPropertyOp15
 70
     1
102
RTVSPropertyOp16
 70
     1
102
RTVSPropertyOp17
 70
     1
102
RTVSPropertyOp18
 70
     1
102
RTVSPropertyOp19
 70
     1
102
RTVSPropertyOp20
 70
     1
102
RTVSPropertyOp21
 70
     1
102
RTVSPropertyOp22
 70
     1
102
RTVSPropertyOp23
 70
     1
102
RTVSPropertyOp24
 70
     1
102
RTVSPropertyOp25
 70
     1
102
RTVSPropertyOp26
 70
     1
102
RTVSPropertyOp27
 70
     1
102
RTVSPropertyOp28
 70
     1
102
RTVSPropertyOp29
 70
     1
102
RTVSPropertyOp30
 70
     1
102
RTVSPropertyOp31
 70
     1
102
RTVSPropertyOp32
 70
     1
102
RTVSPropertyOp33
 70
     1
102
RTVSPropertyOp34
 70
     1
102
RTVSPropertyOp35
 70
     1
102
RTVSPropertyOp36
 70
     1
102
RTVSPropertyOp37
 70
     1
102
RTVSPropertyOp38
 70
     1
102
RTVSPropertyOp39
 70
     1
102
RTVSPropertyOp40
 70
     1
102
RTVSPropertyOp41
 70
     1
102
RTVSPropertyOp42
 70
     1
102
RTVSPropertyOp43
 70
     1
102
RTVSPropertyOp44
 70
     1
102
RTVSPropertyOp45
 70
     1
102
RTVSPropertyOp46
 70
     1
102
RTVSPropertyOp47
 70
     1
102
RTVSPropertyOp48
 70
     1
102
RTVSPropertyOp49
 70
     1
102
RTVSPropertyOp50
 70
     1
102
RTVSPropertyOp51
 70
     0
102
RTVSPropertyOp52
 70
     0
102
RTVSPropertyOp53
 70
     1
102
RTVSPropertyOp54
 70
     1
102
RTVSPropertyOp55
 70
     1
102
RTVSPropertyOp56
 70
     1
102
RTVSPropertyOp57
 70
     1
102
RTVSPost2010Prop28
280
     0
102
RTVSPost2010PropOp28
 70
     1
102
RTVSPost2010Prop29
280
     1
102
RTVSPost2010PropOp29
 70
     1
102
RTVSPost2010Prop30
280
     1
102
RTVSPost2010PropOp30
 70
     1
102
RTVSPost2010Prop31
280
     0
102
RTVSPost2010PropOp31
 70
     1
102
RTVSPost2010Prop32
280
     0
102
RTVSPost2010PropOp32
 70
     1
102
RTVSPost2010Prop33
280
     0
102
RTVSPost2010PropOp33
 70
     1
102
RTVSPost2010Prop34
280
     0
102
RTVSPost2010PropOp34
 70
     1
102
RTVSPost2010Prop35
280
     0
102
RTVSPost2010PropOp35
 70
     1
102
RTVSPost2010Prop36
280
     0
102
RTVSPost2010PropOp36
 70
     1
102
RTVSPost2010Prop37
 90
       50
102
RTVSPost2010PropOp37
 70
     1
102
RTVSPost2010Prop38
140
0.0
102
RTVSPost2010PropOp38
 70
     1
102
RTVSPost2010Prop39
140
1.0
102
RTVSPost2010PropOp39
 70
     1
102
RTVSPost2010Prop40
 90
        0
102
RTVSPost2010PropOp40
 70
     1
102
RTVSPost2010Prop41ColorIndex
 90
       18
102
RTVSPost2010Prop41ColorRGB
 90
        0
102
RTVSPost2010PropOp41
 70
     1
102
RTVSPost2010Prop42
 90
       50
102
RTVSPost2010PropOp42
 70
     1
102
RTVSPost2010Prop43
 90
        3
102
RTVSPost2010PropOp43
 70
     1
102
RTVSPost2010Prop44ColorIndex
 90
        5
102
RTVSPost2010Prop44ColorRGB
 90
      255
102
RTVSPost2010PropOp44
 70
     1
102
RTVSPost2010Prop45
280
     0
102
RTVSPost2010PropOp45
 70
     1
102
RTVSPost2010Prop46
 90
       50
102
RTVSPost2010PropOp46
 70
     1
102
RTVSPost2010Prop47
 90
       50
102
RTVSPost2010PropOp47
 70
     1
102
RTVSPost2010Prop48
 90
       50
102
RTVSPost2010PropOp48
 70
     1
102
RTVSPost2010Prop49
280
     0
102
RTVSPost2010PropOp49
 70
     1
102
RTVSPost2010Prop50
 90
       50
102
RTVSPost2010PropOp50
 70
     1
102
RTVSPost2010Prop51ColorIndex
 90
      256
102
RTVSPost2010Prop51ColorRGB
 90
-16777216
102
RTVSPost2010PropOp51
 70
     0
102
RTVSPost2010Prop52
140
1.0
102
RTVSPost2010PropOp52
 70
     0
102
RTVSPost2010Prop53
 90
        2
102
RTVSPost2010PropOp53
 70
     1
102
RTVSPost2010Prop54
  1
strokes_ogs.tif
102
RTVSPost2010PropOp54
 70
     1
102
RTVSPost2010Prop55
280
     0
102
RTVSPost2010PropOp55
 70
     1
102
RTVSPost2010Prop56
140
1.0
102
RTVSPost2010PropOp56
 70
     1
102
RTVSPost2010Prop57
140
1.0
102
RTVSPost2010PropOp57
 70
     1
  0
XRECORD
  5
303
102
{ACAD_REACTORS
330
302
102
}
330
302
100
AcDbXrecord
280
     1
102
RTVSPropertyOp0
 70
     1
102
RTVSPropertyOp1
 70
     1
102
RTVSPropertyOp2
 70
     1
102
RTVSPropertyOp3
 70
     1
102
RTVSPropertyOp4
 70
     1
102
RTVSPropertyOp5
 70
     1
102
RTVSPropertyOp6
 70
     1
102
RTVSPropertyOp7
 70
     1
102
RTVSPropertyOp8
 70
     1
102
RTVSPropertyOp9
 70
     1
102
RTVSPropertyOp10
 70
     1
102
RTVSPropertyOp11
 70
     1
102
RTVSPropertyOp12
 70
     1
102
RTVSPropertyOp13
 70
     1
102
RTVSPropertyOp14
 70
     1
102
RTVSPropertyOp15
 70
     1
102
RTVSPropertyOp16
 70
     1
102
RTVSPropertyOp17
 70
     1
102
RTVSPropertyOp18
 70
     1
102
RTVSPropertyOp19
 70
     1
102
RTVSPropertyOp20
 70
     1
102
RTVSPropertyOp21
 70
     1
102
RTVSPropertyOp22
 70
     1
102
RTVSPropertyOp23
 70
     1
102
RTVSPropertyOp24
 70
     1
102
RTVSPropertyOp25
 70
     1
102
RTVSPropertyOp26
 70
     1
102
RTVSPropertyOp27
 70
     1
102
RTVSPropertyOp28
 70
     1
102
RTVSPropertyOp29
 70
     1
102
RTVSPropertyOp30
 70
     1
102
RTVSPropertyOp31
 70
     1
102
RTVSPropertyOp32
 70
     1
102
RTVSPropertyOp33
 70
     1
102
RTVSPropertyOp34
 70
     1
102
RTVSPropertyOp35
 70
     1
102
RTVSPropertyOp36
 70
     1
102
RTVSPropertyOp37
 70
     1
102
RTVSPropertyOp38
 70
     1
102
RTVSPropertyOp39
 70
     1
102
RTVSPropertyOp40
 70
     1
102
RTVSPropertyOp41
 70
     1
102
RTVSPropertyOp42
 70
     1
102
RTVSPropertyOp43
 70
     1
102
RTVSPropertyOp44
 70
     1
102
RTVSPropertyOp45
 70
     1
102
RTVSPropertyOp46
 70
     1
102
RTVSPropertyOp47
 70
     1
102
RTVSPropertyOp48
 70
     1
102
RTVSPropertyOp49
 70
     1
102
RTVSPropertyOp50
 70
     1
102
RTVSPropertyOp51
 70
     0
102
RTVSPropertyOp52
 70
     0
102
RTVSPropertyOp53
 70
     1
102
RTVSPropertyOp54
 70
     1
102
RTVSPropertyOp55
 70
     1
102
RTVSPropertyOp56
 70
     1
102
RTVSPropertyOp57
 70
     1
102
RTVSPost2010Prop28
280
     0
102
RTVSPost2010PropOp28
 70
     1
102
RTVSPost2010Prop29
280
     1
102
RTVSPost2010PropOp29
 70
     1
102
RTVSPost2010Prop30
280
     1
102
RTVSPost2010PropOp30
 70
     1
102
RTVSPost2010Prop31
280
     0
102
RTVSPost2010PropOp31
 70
     1
102
RTVSPost2010Prop32
280
     0
102
RTVSPost2010PropOp32
 70
     1
102
RTVSPost2010Prop33
280
     0
102
RTVSPost2010PropOp33
 70
     1
102
RTVSPost2010Prop34
280
     0
102
RTVSPost2010PropOp34
 70
     1
102
RTVSPost2010Prop35
280
     0
102
RTVSPost2010PropOp35
 70
     1
102
RTVSPost2010Prop36
280
     0
102
RTVSPost2010PropOp36
 70
     1
102
RTVSPost2010Prop37
 90
       50
102
RTVSPost2010PropOp37
 70
     1
102
RTVSPost2010Prop38
140
0.0
102
RTVSPost2010PropOp38
 70
     1
102
RTVSPost2010Prop39
140
1.0
102
RTVSPost2010PropOp39
 70
     1
102
RTVSPost2010Prop40
 90
        0
102
RTVSPost2010PropOp40
 70
     1
102
RTVSPost2010Prop41ColorIndex
 90
       18
102
RTVSPost2010Prop41ColorRGB
 90
        0
102
RTVSPost2010PropOp41
 70
     1
102
RTVSPost2010Prop42
 90
       50
102
RTVSPost2010PropOp42
 70
     1
102
RTVSPost2010Prop43
 90
        3
102
RTVSPost2010PropOp43
 70
     1
102
RTVSPost2010Prop44ColorIndex
 90
        5
102
RTVSPost2010Prop44ColorRGB
 90
      255
102
RTVSPost2010PropOp44
 70
     1
102
RTVSPost2010Prop45
280
     0
102
RTVSPost2010PropOp45
 70
     1
102
RTVSPost2010Prop46
 90
       50
102
RTVSPost2010PropOp46
 70
     1
102
RTVSPost2010Prop47
 90
       50
102
RTVSPost2010PropOp47
 70
     1
102
RTVSPost2010Prop48
 90
       50
102
RTVSPost2010PropOp48
 70
     1
102
RTVSPost2010Prop49
280
     0
102
RTVSPost2010PropOp49
 70
     1
102
RTVSPost2010Prop50
 90
       50
102
RTVSPost2010PropOp50
 70
     1
102
RTVSPost2010Prop51ColorIndex
 90
      256
102
RTVSPost2010Prop51ColorRGB
 90
-16777216
102
RTVSPost2010PropOp51
 70
     0
102
RTVSPost2010Prop52
140
1.0
102
RTVSPost2010PropOp52
 70
     0
102
RTVSPost2010Prop53
 90
        2
102
RTVSPost2010PropOp53
 70
     1
102
RTVSPost2010Prop54
  1
strokes_ogs.tif
102
RTVSPost2010PropOp54
 70
     1
102
RTVSPost2010Prop55
280
     0
102
RTVSPost2010PropOp55
 70
     1
102
RTVSPost2010Prop56
140
1.0
102
RTVSPost2010PropOp56
 70
     1
102
RTVSPost2010Prop57
140
1.0
102
RTVSPost2010PropOp57
 70
     1
  0
XRECORD
  5
305
102
{ACAD_REACTORS
330
304
102
}
330
304
100
AcDbXrecord
280
     1
102
RTVSPropertyOp0
 70
     1
102
RTVSPropertyOp1
 70
     1
102
RTVSPropertyOp2
 70
     1
102
RTVSPropertyOp3
 70
     1
102
RTVSPropertyOp4
 70
     1
102
RTVSPropertyOp5
 70
     1
102
RTVSPropertyOp6
 70
     1
102
RTVSPropertyOp7
 70
     1
102
RTVSPropertyOp8
 70
     1
102
RTVSPropertyOp9
 70
     1
102
RTVSPropertyOp10
 70
     1
102
RTVSPropertyOp11
 70
     1
102
RTVSPropertyOp12
 70
     1
102
RTVSPropertyOp13
 70
     1
102
RTVSPropertyOp14
 70
     1
102
RTVSPropertyOp15
 70
     1
102
RTVSPropertyOp16
 70
     1
102
RTVSPropertyOp17
 70
     1
102
RTVSPropertyOp18
 70
     1
102
RTVSPropertyOp19
 70
     1
102
RTVSPropertyOp20
 70
     1
102
RTVSPropertyOp21
 70
     1
102
RTVSPropertyOp22
 70
     1
102
RTVSPropertyOp23
 70
     1
102
RTVSPropertyOp24
 70
     1
102
RTVSPropertyOp25
 70
     1
102
RTVSPropertyOp26
 70
     1
102
RTVSPropertyOp27
 70
     1
102
RTVSPropertyOp28
 70
     1
102
RTVSPropertyOp29
 70
     1
102
RTVSPropertyOp30
 70
     1
102
RTVSPropertyOp31
 70
     1
102
RTVSPropertyOp32
 70
     1
102
RTVSPropertyOp33
 70
     1
102
RTVSPropertyOp34
 70
     1
102
RTVSPropertyOp35
 70
     1
102
RTVSPropertyOp36
 70
     1
102
RTVSPropertyOp37
 70
     1
102
RTVSPropertyOp38
 70
     1
102
RTVSPropertyOp39
 70
     1
102
RTVSPropertyOp40
 70
     1
102
RTVSPropertyOp41
 70
     1
102
RTVSPropertyOp42
 70
     1
102
RTVSPropertyOp43
 70
     1
102
RTVSPropertyOp44
 70
     1
102
RTVSPropertyOp45
 70
     1
102
RTVSPropertyOp46
 70
     1
102
RTVSPropertyOp47
 70
     1
102
RTVSPropertyOp48
 70
     1
102
RTVSPropertyOp49
 70
     1
102
RTVSPropertyOp50
 70
     1
102
RTVSPropertyOp51
 70
     0
102
RTVSPropertyOp52
 70
     0
102
RTVSPropertyOp53
 70
     1
102
RTVSPropertyOp54
 70
     1
102
RTVSPropertyOp55
 70
     1
102
RTVSPropertyOp56
 70
     1
102
RTVSPropertyOp57
 70
     1
102
RTVSPost2010Prop28
280
     0
102
RTVSPost2010PropOp28
 70
     1
102
RTVSPost2010Prop29
280
     1
102
RTVSPost2010PropOp29
 70
     1
102
RTVSPost2010Prop30
280
     1
102
RTVSPost2010PropOp30
 70
     1
102
RTVSPost2010Prop31
280
     0
102
RTVSPost2010PropOp31
 70
     1
102
RTVSPost2010Prop32
280
     0
102
RTVSPost2010PropOp32
 70
     1
102
RTVSPost2010Prop33
280
     0
102
RTVSPost2010PropOp33
 70
     1
102
RTVSPost2010Prop34
280
     0
102
RTVSPost2010PropOp34
 70
     1
102
RTVSPost2010Prop35
280
     0
102
RTVSPost2010PropOp35
 70
     1
102
RTVSPost2010Prop36
280
     0
102
RTVSPost2010PropOp36
 70
     1
102
RTVSPost2010Prop37
 90
       50
102
RTVSPost2010PropOp37
 70
     1
102
RTVSPost2010Prop38
140
0.0
102
RTVSPost2010PropOp38
 70
     1
102
RTVSPost2010Prop39
140
1.0
102
RTVSPost2010PropOp39
 70
     1
102
RTVSPost2010Prop40
 90
        0
102
RTVSPost2010PropOp40
 70
     1
102
RTVSPost2010Prop41ColorIndex
 90
       18
102
RTVSPost2010Prop41ColorRGB
 90
        0
102
RTVSPost2010PropOp41
 70
     1
102
RTVSPost2010Prop42
 90
       50
102
RTVSPost2010PropOp42
 70
     1
102
RTVSPost2010Prop43
 90
        3
102
RTVSPost2010PropOp43
 70
     1
102
RTVSPost2010Prop44ColorIndex
 90
        5
102
RTVSPost2010Prop44ColorRGB
 90
      255
102
RTVSPost2010PropOp44
 70
     1
102
RTVSPost2010Prop45
280
     0
102
RTVSPost2010PropOp45
 70
     1
102
RTVSPost2010Prop46
 90
       50
102
RTVSPost2010PropOp46
 70
     1
102
RTVSPost2010Prop47
 90
       50
102
RTVSPost2010PropOp47
 70
     1
102
RTVSPost2010Prop48
 90
       50
102
RTVSPost2010PropOp48
 70
     1
102
RTVSPost2010Prop49
280
     0
102
RTVSPost2010PropOp49
 70
     1
102
RTVSPost2010Prop50
 90
       50
102
RTVSPost2010PropOp50
 70
     1
102
RTVSPost2010Prop51ColorIndex
 90
      256
102
RTVSPost2010Prop51ColorRGB
 90
-16777216
102
RTVSPost2010PropOp51
 70
     0
102
RTVSPost2010Prop52
140
1.0
102
RTVSPost2010PropOp52
 70
     0
102
RTVSPost2010Prop53
 90
        2
102
RTVSPost2010PropOp53
 70
     1
102
RTVSPost2010Prop54
  1
strokes_ogs.tif
102
RTVSPost2010PropOp54
 70
     1
102
RTVSPost2010Prop55
280
     0
102
RTVSPost2010PropOp55
 70
     1
102
RTVSPost2010Prop56
140
1.0
102
RTVSPost2010PropOp56
 70
     1
102
RTVSPost2010Prop57
140
1.0
102
RTVSPost2010PropOp57
 70
     1
  0
XRECORD
  5
307
102
{ACAD_REACTORS
330
306
102
}
330
306
100
AcDbXrecord
280
     1
102
RTVSPropertyOp0
 70
     1
102
RTVSPropertyOp1
 70
     1
102
RTVSPropertyOp2
 70
     1
102
RTVSPropertyOp3
 70
     1
102
RTVSPropertyOp4
 70
     1
102
RTVSPropertyOp5
 70
     1
102
RTVSPropertyOp6
 70
     1
102
RTVSPropertyOp7
 70
     1
102
RTVSPropertyOp8
 70
     1
102
RTVSPropertyOp9
 70
     1
102
RTVSPropertyOp10
 70
     1
102
RTVSPropertyOp11
 70
     1
102
RTVSPropertyOp12
 70
     1
102
RTVSPropertyOp13
 70
     1
102
RTVSPropertyOp14
 70
     1
102
RTVSPropertyOp15
 70
     1
102
RTVSPropertyOp16
 70
     1
102
RTVSPropertyOp17
 70
     1
102
RTVSPropertyOp18
 70
     1
102
RTVSPropertyOp19
 70
     1
102
RTVSPropertyOp20
 70
     1
102
RTVSPropertyOp21
 70
     1
102
RTVSPropertyOp22
 70
     1
102
RTVSPropertyOp23
 70
     1
102
RTVSPropertyOp24
 70
     1
102
RTVSPropertyOp25
 70
     1
102
RTVSPropertyOp26
 70
     1
102
RTVSPropertyOp27
 70
     1
102
RTVSPropertyOp28
 70
     1
102
RTVSPropertyOp29
 70
     1
102
RTVSPropertyOp30
 70
     1
102
RTVSPropertyOp31
 70
     1
102
RTVSPropertyOp32
 70
     1
102
RTVSPropertyOp33
 70
     1
102
RTVSPropertyOp34
 70
     1
102
RTVSPropertyOp35
 70
     1
102
RTVSPropertyOp36
 70
     1
102
RTVSPropertyOp37
 70
     1
102
RTVSPropertyOp38
 70
     1
102
RTVSPropertyOp39
 70
     1
102
RTVSPropertyOp40
 70
     1
102
RTVSPropertyOp41
 70
     1
102
RTVSPropertyOp42
 70
     1
102
RTVSPropertyOp43
 70
     1
102
RTVSPropertyOp44
 70
     1
102
RTVSPropertyOp45
 70
     1
102
RTVSPropertyOp46
 70
     1
102
RTVSPropertyOp47
 70
     1
102
RTVSPropertyOp48
 70
     1
102
RTVSPropertyOp49
 70
     1
102
RTVSPropertyOp50
 70
     1
102
RTVSPropertyOp51
 70
     0
102
RTVSPropertyOp52
 70
     0
102
RTVSPropertyOp53
 70
     1
102
RTVSPropertyOp54
 70
     1
102
RTVSPropertyOp55
 70
     1
102
RTVSPropertyOp56
 70
     1
102
RTVSPropertyOp57
 70
     1
102
RTVSPost2010Prop28
280
     0
102
RTVSPost2010PropOp28
 70
     1
102
RTVSPost2010Prop29
280
     1
102
RTVSPost2010PropOp29
 70
     1
102
RTVSPost2010Prop30
280
     1
102
RTVSPost2010PropOp30
 70
     1
102
RTVSPost2010Prop31
280
     0
102
RTVSPost2010PropOp31
 70
     1
102
RTVSPost2010Prop32
280
     0
102
RTVSPost2010PropOp32
 70
     1
102
RTVSPost2010Prop33
280
     0
102
RTVSPost2010PropOp33
 70
     1
102
RTVSPost2010Prop34
280
     0
102
RTVSPost2010PropOp34
 70
     1
102
RTVSPost2010Prop35
280
     0
102
RTVSPost2010PropOp35
 70
     1
102
RTVSPost2010Prop36
280
     0
102
RTVSPost2010PropOp36
 70
     1
102
RTVSPost2010Prop37
 90
       50
102
RTVSPost2010PropOp37
 70
     1
102
RTVSPost2010Prop38
140
0.0
102
RTVSPost2010PropOp38
 70
     1
102
RTVSPost2010Prop39
140
1.0
102
RTVSPost2010PropOp39
 70
     1
102
RTVSPost2010Prop40
 90
        0
102
RTVSPost2010PropOp40
 70
     1
102
RTVSPost2010Prop41ColorIndex
 90
       18
102
RTVSPost2010Prop41ColorRGB
 90
        0
102
RTVSPost2010PropOp41
 70
     1
102
RTVSPost2010Prop42
 90
       50
102
RTVSPost2010PropOp42
 70
     1
102
RTVSPost2010Prop43
 90
        3
102
RTVSPost2010PropOp43
 70
     1
102
RTVSPost2010Prop44ColorIndex
 90
        5
102
RTVSPost2010Prop44ColorRGB
 90
      255
102
RTVSPost2010PropOp44
 70
     1
102
RTVSPost2010Prop45
280
     0
102
RTVSPost2010PropOp45
 70
     1
102
RTVSPost2010Prop46
 90
       50
102
RTVSPost2010PropOp46
 70
     1
102
RTVSPost2010Prop47
 90
       50
102
RTVSPost2010PropOp47
 70
     1
102
RTVSPost2010Prop48
 90
       50
102
RTVSPost2010PropOp48
 70
     1
102
RTVSPost2010Prop49
280
     0
102
RTVSPost2010PropOp49
 70
     1
102
RTVSPost2010Prop50
 90
       50
102
RTVSPost2010PropOp50
 70
     1
102
RTVSPost2010Prop51ColorIndex
 90
      256
102
RTVSPost2010Prop51ColorRGB
 90
-16777216
102
RTVSPost2010PropOp51
 70
     0
102
RTVSPost2010Prop52
140
1.0
102
RTVSPost2010PropOp52
 70
     0
102
RTVSPost2010Prop53
 90
        2
102
RTVSPost2010PropOp53
 70
     1
102
RTVSPost2010Prop54
  1
strokes_ogs.tif
102
RTVSPost2010PropOp54
 70
     1
102
RTVSPost2010Prop55
280
     0
102
RTVSPost2010PropOp55
 70
     1
102
RTVSPost2010Prop56
140
1.0
102
RTVSPost2010PropOp56
 70
     1
102
RTVSPost2010Prop57
140
1.0
102
RTVSPost2010PropOp57
 70
     1
  0
XRECORD
  5
30D
102
{ACAD_REACTORS
330
30C
102
}
330
30C
100
AcDbXrecord
280
     1
102
RTVSPropertyOp0
 70
     1
102
RTVSPropertyOp1
 70
     1
102
RTVSPropertyOp2
 70
     1
102
RTVSPropertyOp3
 70
     1
102
RTVSPropertyOp4
 70
     1
102
RTVSPropertyOp5
 70
     1
102
RTVSPropertyOp6
 70
     1
102
RTVSPropertyOp7
 70
     1
102
RTVSPropertyOp8
 70
     1
102
RTVSPropertyOp9
 70
     1
102
RTVSPropertyOp10
 70
     1
102
RTVSPropertyOp11
 70
     1
102
RTVSPropertyOp12
 70
     1
102
RTVSPropertyOp13
 70
     1
102
RTVSPropertyOp14
 70
     1
102
RTVSPropertyOp15
 70
     1
102
RTVSPropertyOp16
 70
     1
102
RTVSPropertyOp17
 70
     1
102
RTVSPropertyOp18
 70
     1
102
RTVSPropertyOp19
 70
     1
102
RTVSPropertyOp20
 70
     1
102
RTVSPropertyOp21
 70
     1
102
RTVSPropertyOp22
 70
     1
102
RTVSPropertyOp23
 70
     1
102
RTVSPropertyOp24
 70
     1
102
RTVSPropertyOp25
 70
     1
102
RTVSPropertyOp26
 70
     1
102
RTVSPropertyOp27
 70
     1
102
RTVSPropertyOp28
 70
     1
102
RTVSPropertyOp29
 70
     1
102
RTVSPropertyOp30
 70
     1
102
RTVSPropertyOp31
 70
     1
102
RTVSPropertyOp32
 70
     1
102
RTVSPropertyOp33
 70
     1
102
RTVSPropertyOp34
 70
     1
102
RTVSPropertyOp35
 70
     1
102
RTVSPropertyOp36
 70
     1
102
RTVSPropertyOp37
 70
     1
102
RTVSPropertyOp38
 70
     1
102
RTVSPropertyOp39
 70
     1
102
RTVSPropertyOp40
 70
     1
102
RTVSPropertyOp41
 70
     1
102
RTVSPropertyOp42
 70
     1
102
RTVSPropertyOp43
 70
     1
102
RTVSPropertyOp44
 70
     1
102
RTVSPropertyOp45
 70
     1
102
RTVSPropertyOp46
 70
     1
102
RTVSPropertyOp47
 70
     1
102
RTVSPropertyOp48
 70
     1
102
RTVSPropertyOp49
 70
     1
102
RTVSPropertyOp50
 70
     1
102
RTVSPropertyOp51
 70
     0
102
RTVSPropertyOp52
 70
     0
102
RTVSPropertyOp53
 70
     1
102
RTVSPropertyOp54
 70
     1
102
RTVSPropertyOp55
 70
     1
102
RTVSPropertyOp56
 70
     1
102
RTVSPropertyOp57
 70
     1
102
RTVSPost2010Prop28
280
     0
102
RTVSPost2010PropOp28
 70
     1
102
RTVSPost2010Prop29
280
     1
102
RTVSPost2010PropOp29
 70
     1
102
RTVSPost2010Prop30
280
     1
102
RTVSPost2010PropOp30
 70
     1
102
RTVSPost2010Prop31
280
     0
102
RTVSPost2010PropOp31
 70
     1
102
RTVSPost2010Prop32
280
     0
102
RTVSPost2010PropOp32
 70
     1
102
RTVSPost2010Prop33
280
     0
102
RTVSPost2010PropOp33
 70
     1
102
RTVSPost2010Prop34
280
     0
102
RTVSPost2010PropOp34
 70
     1
102
RTVSPost2010Prop35
280
     0
102
RTVSPost2010PropOp35
 70
     1
102
RTVSPost2010Prop36
280
     0
102
RTVSPost2010PropOp36
 70
     1
102
RTVSPost2010Prop37
 90
       50
102
RTVSPost2010PropOp37
 70
     1
102
RTVSPost2010Prop38
140
0.0
102
RTVSPost2010PropOp38
 70
     1
102
RTVSPost2010Prop39
140
1.0
102
RTVSPost2010PropOp39
 70
     1
102
RTVSPost2010Prop40
 90
        0
102
RTVSPost2010PropOp40
 70
     1
102
RTVSPost2010Prop41ColorIndex
 90
       18
102
RTVSPost2010Prop41ColorRGB
 90
        0
102
RTVSPost2010PropOp41
 70
     1
102
RTVSPost2010Prop42
 90
       50
102
RTVSPost2010PropOp42
 70
     1
102
RTVSPost2010Prop43
 90
        3
102
RTVSPost2010PropOp43
 70
     1
102
RTVSPost2010Prop44ColorIndex
 90
        5
102
RTVSPost2010Prop44ColorRGB
 90
      255
102
RTVSPost2010PropOp44
 70
     1
102
RTVSPost2010Prop45
280
     0
102
RTVSPost2010PropOp45
 70
     1
102
RTVSPost2010Prop46
 90
       50
102
RTVSPost2010PropOp46
 70
     1
102
RTVSPost2010Prop47
 90
       50
102
RTVSPost2010PropOp47
 70
     1
102
RTVSPost2010Prop48
 90
       50
102
RTVSPost2010PropOp48
 70
     1
102
RTVSPost2010Prop49
280
     0
102
RTVSPost2010PropOp49
 70
     1
102
RTVSPost2010Prop50
 90
       50
102
RTVSPost2010PropOp50
 70
     1
102
RTVSPost2010Prop51ColorIndex
 90
      256
102
RTVSPost2010Prop51ColorRGB
 90
-16777216
102
RTVSPost2010PropOp51
 70
     0
102
RTVSPost2010Prop52
140
1.0
102
RTVSPost2010PropOp52
 70
     0
102
RTVSPost2010Prop53
 90
        2
102
RTVSPost2010PropOp53
 70
     1
102
RTVSPost2010Prop54
  1
strokes_ogs.tif
102
RTVSPost2010PropOp54
 70
     1
102
RTVSPost2010Prop55
280
     0
102
RTVSPost2010PropOp55
 70
     1
102
RTVSPost2010Prop56
140
1.0
102
RTVSPost2010PropOp56
 70
     1
102
RTVSPost2010Prop57
140
1.0
102
RTVSPost2010PropOp57
 70
     1
  0
XRECORD
  5
321
102
{ACAD_REACTORS
330
320
102
}
330
320
100
AcDbXrecord
280
     1
102
RTVSPropertyOp0
 70
     0
102
RTVSPropertyOp1
 70
     0
102
RTVSPropertyOp2
 70
     0
102
RTVSPropertyOp3
 70
     0
102
RTVSPropertyOp4
 70
     0
102
RTVSPropertyOp5
 70
     0
102
RTVSPropertyOp6
 70
     0
102
RTVSPropertyOp7
 70
     0
102
RTVSPropertyOp8
 70
     0
102
RTVSPropertyOp9
 70
     0
102
RTVSPropertyOp10
 70
     0
102
RTVSPropertyOp11
 70
     0
102
RTVSPropertyOp12
 70
     0
102
RTVSPropertyOp13
 70
     0
102
RTVSPropertyOp14
 70
     2
102
RTVSPropertyOp15
 70
     0
102
RTVSPropertyOp16
 70
     0
102
RTVSPropertyOp17
 70
     0
102
RTVSPropertyOp18
 70
     0
102
RTVSPropertyOp19
 70
     0
102
RTVSPropertyOp20
 70
     0
102
RTVSPropertyOp21
 70
     0
102
RTVSPropertyOp22
 70
     0
102
RTVSPropertyOp23
 70
     0
102
RTVSPropertyOp24
 70
     0
102
RTVSPropertyOp25
 70
     0
102
RTVSPropertyOp26
 70
     0
102
RTVSPropertyOp27
 70
     0
102
RTVSPropertyOp28
 70
     0
102
RTVSPropertyOp29
 70
     0
102
RTVSPropertyOp30
 70
     0
102
RTVSPropertyOp31
 70
     0
102
RTVSPropertyOp32
 70
     0
102
RTVSPropertyOp33
 70
     0
102
RTVSPropertyOp34
 70
     0
102
RTVSPropertyOp35
 70
     0
102
RTVSPropertyOp36
 70
     0
102
RTVSPropertyOp37
 70
     0
102
RTVSPropertyOp38
 70
     0
102
RTVSPropertyOp39
 70
     0
102
RTVSPropertyOp40
 70
     0
102
RTVSPropertyOp41
 70
     0
102
RTVSPropertyOp42
 70
     0
102
RTVSPropertyOp43
 70
     0
102
RTVSPropertyOp44
 70
     0
102
RTVSPropertyOp45
 70
     0
102
RTVSPropertyOp46
 70
     0
102
RTVSPropertyOp47
 70
     0
102
RTVSPropertyOp48
 70
     0
102
RTVSPropertyOp49
 70
     0
102
RTVSPropertyOp50
 70
     0
102
RTVSPropertyOp51
 70
     0
102
RTVSPropertyOp52
 70
     0
102
RTVSPropertyOp53
 70
     0
102
RTVSPropertyOp54
 70
     0
102
RTVSPropertyOp55
 70
     0
102
RTVSPropertyOp56
 70
     0
102
RTVSPropertyOp57
 70
     0
102
RTVSPost2010Prop28
280
     0
102
RTVSPost2010PropOp28
 70
     0
102
RTVSPost2010Prop29
280
     1
102
RTVSPost2010PropOp29
 70
     0
102
RTVSPost2010Prop30
280
     1
102
RTVSPost2010PropOp30
 70
     0
102
RTVSPost2010Prop31
280
     0
102
RTVSPost2010PropOp31
 70
     0
102
RTVSPost2010Prop32
280
     0
102
RTVSPost2010PropOp32
 70
     0
102
RTVSPost2010Prop33
280
     0
102
RTVSPost2010PropOp33
 70
     0
102
RTVSPost2010Prop34
280
     0
102
RTVSPost2010PropOp34
 70
     0
102
RTVSPost2010Prop35
280
     0
102
RTVSPost2010PropOp35
 70
     0
102
RTVSPost2010Prop36
280
     0
102
RTVSPost2010PropOp36
 70
     0
102
RTVSPost2010Prop37
 90
       50
102
RTVSPost2010PropOp37
 70
     0
102
RTVSPost2010Prop38
140
0.0
102
RTVSPost2010PropOp38
 70
     0
102
RTVSPost2010Prop39
140
1.0
102
RTVSPost2010PropOp39
 70
     0
102
RTVSPost2010Prop40
 90
        0
102
RTVSPost2010PropOp40
 70
     0
102
RTVSPost2010Prop41ColorIndex
 90
       18
102
RTVSPost2010Prop41ColorRGB
 90
        0
102
RTVSPost2010PropOp41
 70
     0
102
RTVSPost2010Prop42
 90
       50
102
RTVSPost2010PropOp42
 70
     0
102
RTVSPost2010Prop43
 90
        3
102
RTVSPost2010PropOp43
 70
     0
102
RTVSPost2010Prop44ColorIndex
 90
        5
102
RTVSPost2010Prop44ColorRGB
 90
      255
102
RTVSPost2010PropOp44
 70
     0
102
RTVSPost2010Prop45
280
     0
102
RTVSPost2010PropOp45
 70
     0
102
RTVSPost2010Prop46
 90
       50
102
RTVSPost2010PropOp46
 70
     0
102
RTVSPost2010Prop47
 90
       50
102
RTVSPost2010PropOp47
 70
     0
102
RTVSPost2010Prop48
 90
       50
102
RTVSPost2010PropOp48
 70
     0
102
RTVSPost2010Prop49
280
     0
102
RTVSPost2010PropOp49
 70
     0
102
RTVSPost2010Prop50
 90
       50
102
RTVSPost2010PropOp50
 70
     0
102
RTVSPost2010Prop51ColorIndex
 90
      256
102
RTVSPost2010Prop51ColorRGB
 90
-16777216
102
RTVSPost2010PropOp51
 70
     0
102
RTVSPost2010Prop52
140
1.0
102
RTVSPost2010PropOp52
 70
     0
102
RTVSPost2010Prop53
 90
        2
102
RTVSPost2010PropOp53
 70
     0
102
RTVSPost2010Prop54
  1
strokes_ogs.tif
102
RTVSPost2010PropOp54
 70
     0
102
RTVSPost2010Prop55
280
     0
102
RTVSPost2010PropOp55
 70
     0
102
RTVSPost2010Prop56
140
1.0
102
RTVSPost2010PropOp56
 70
     0
102
RTVSPost2010Prop57
140
1.0
102
RTVSPost2010PropOp57
 70
     0
  0
XRECORD
  5
31B
102
{ACAD_REACTORS
330
31A
102
}
330
31A
100
AcDbXrecord
280
     1
102
RTVSPropertyOp0
 70
     1
102
RTVSPropertyOp1
 70
     1
102
RTVSPropertyOp2
 70
     1
102
RTVSPropertyOp3
 70
     1
102
RTVSPropertyOp4
 70
     1
102
RTVSPropertyOp5
 70
     1
102
RTVSPropertyOp6
 70
     1
102
RTVSPropertyOp7
 70
     1
102
RTVSPropertyOp8
 70
     1
102
RTVSPropertyOp9
 70
     1
102
RTVSPropertyOp10
 70
     1
102
RTVSPropertyOp11
 70
     1
102
RTVSPropertyOp12
 70
     1
102
RTVSPropertyOp13
 70
     1
102
RTVSPropertyOp14
 70
     1
102
RTVSPropertyOp15
 70
     1
102
RTVSPropertyOp16
 70
     1
102
RTVSPropertyOp17
 70
     1
102
RTVSPropertyOp18
 70
     1
102
RTVSPropertyOp19
 70
     1
102
RTVSPropertyOp20
 70
     1
102
RTVSPropertyOp21
 70
     1
102
RTVSPropertyOp22
 70
     1
102
RTVSPropertyOp23
 70
     1
102
RTVSPropertyOp24
 70
     1
102
RTVSPropertyOp25
 70
     1
102
RTVSPropertyOp26
 70
     1
102
RTVSPropertyOp27
 70
     1
102
RTVSPropertyOp28
 70
     1
102
RTVSPropertyOp29
 70
     1
102
RTVSPropertyOp30
 70
     1
102
RTVSPropertyOp31
 70
     1
102
RTVSPropertyOp32
 70
     1
102
RTVSPropertyOp33
 70
     1
102
RTVSPropertyOp34
 70
     1
102
RTVSPropertyOp35
 70
     1
102
RTVSPropertyOp36
 70
     1
102
RTVSPropertyOp37
 70
     1
102
RTVSPropertyOp38
 70
     1
102
RTVSPropertyOp39
 70
     1
102
RTVSPropertyOp40
 70
     1
102
RTVSPropertyOp41
 70
     1
102
RTVSPropertyOp42
 70
     1
102
RTVSPropertyOp43
 70
     1
102
RTVSPropertyOp44
 70
     1
102
RTVSPropertyOp45
 70
     1
102
RTVSPropertyOp46
 70
     1
102
RTVSPropertyOp47
 70
     1
102
RTVSPropertyOp48
 70
     1
102
RTVSPropertyOp49
 70
     1
102
RTVSPropertyOp50
 70
     1
102
RTVSPropertyOp51
 70
     0
102
RTVSPropertyOp52
 70
     0
102
RTVSPropertyOp53
 70
     1
102
RTVSPropertyOp54
 70
     1
102
RTVSPropertyOp55
 70
     1
102
RTVSPropertyOp56
 70
     1
102
RTVSPropertyOp57
 70
     1
102
RTVSPost2010Prop28
280
     0
102
RTVSPost2010PropOp28
 70
     1
102
RTVSPost2010Prop29
280
     1
102
RTVSPost2010PropOp29
 70
     1
102
RTVSPost2010Prop30
280
     1
102
RTVSPost2010PropOp30
 70
     1
102
RTVSPost2010Prop31
280
     0
102
RTVSPost2010PropOp31
 70
     1
102
RTVSPost2010Prop32
280
     0
102
RTVSPost2010PropOp32
 70
     1
102
RTVSPost2010Prop33
280
     0
102
RTVSPost2010PropOp33
 70
     1
102
RTVSPost2010Prop34
280
     0
102
RTVSPost2010PropOp34
 70
     1
102
RTVSPost2010Prop35
280
     0
102
RTVSPost2010PropOp35
 70
     1
102
RTVSPost2010Prop36
280
     0
102
RTVSPost2010PropOp36
 70
     1
102
RTVSPost2010Prop37
 90
       50
102
RTVSPost2010PropOp37
 70
     1
102
RTVSPost2010Prop38
140
0.0
102
RTVSPost2010PropOp38
 70
     1
102
RTVSPost2010Prop39
140
1.0
102
RTVSPost2010PropOp39
 70
     1
102
RTVSPost2010Prop40
 90
        0
102
RTVSPost2010PropOp40
 70
     1
102
RTVSPost2010Prop41ColorIndex
 90
       18
102
RTVSPost2010Prop41ColorRGB
 90
        0
102
RTVSPost2010PropOp41
 70
     1
102
RTVSPost2010Prop42
 90
       50
102
RTVSPost2010PropOp42
 70
     1
102
RTVSPost2010Prop43
 90
        3
102
RTVSPost2010PropOp43
 70
     1
102
RTVSPost2010Prop44ColorIndex
 90
        5
102
RTVSPost2010Prop44ColorRGB
 90
      255
102
RTVSPost2010PropOp44
 70
     1
102
RTVSPost2010Prop45
280
     0
102
RTVSPost2010PropOp45
 70
     1
102
RTVSPost2010Prop46
 90
       50
102
RTVSPost2010PropOp46
 70
     1
102
RTVSPost2010Prop47
 90
       50
102
RTVSPost2010PropOp47
 70
     1
102
RTVSPost2010Prop48
 90
       50
102
RTVSPost2010PropOp48
 70
     1
102
RTVSPost2010Prop49
280
     0
102
RTVSPost2010PropOp49
 70
     1
102
RTVSPost2010Prop50
 90
       50
102
RTVSPost2010PropOp50
 70
     1
102
RTVSPost2010Prop51ColorIndex
 90
      256
102
RTVSPost2010Prop51ColorRGB
 90
-16777216
102
RTVSPost2010PropOp51
 70
     0
102
RTVSPost2010Prop52
140
1.0
102
RTVSPost2010PropOp52
 70
     0
102
RTVSPost2010Prop53
 90
        2
102
RTVSPost2010PropOp53
 70
     1
102
RTVSPost2010Prop54
  1
strokes_ogs.tif
102
RTVSPost2010PropOp54
 70
     1
102
RTVSPost2010Prop55
280
     0
102
RTVSPost2010PropOp55
 70
     1
102
RTVSPost2010Prop56
140
1.0
102
RTVSPost2010PropOp56
 70
     1
102
RTVSPost2010Prop57
140
1.0
102
RTVSPost2010PropOp57
 70
     1
  0
XRECORD
  5
323
102
{ACAD_REACTORS
330
322
102
}
330
322
100
AcDbXrecord
280
     1
102
RTVSPropertyOp0
 70
     0
102
RTVSPropertyOp1
 70
     0
102
RTVSPropertyOp2
 70
     0
102
RTVSPropertyOp3
 70
     0
102
RTVSPropertyOp4
 70
     0
102
RTVSPropertyOp5
 70
     0
102
RTVSPropertyOp6
 70
     0
102
RTVSPropertyOp7
 70
     0
102
RTVSPropertyOp8
 70
     0
102
RTVSPropertyOp9
 70
     0
102
RTVSPropertyOp10
 70
     0
102
RTVSPropertyOp11
 70
     0
102
RTVSPropertyOp12
 70
     0
102
RTVSPropertyOp13
 70
     0
102
RTVSPropertyOp14
 70
     2
102
RTVSPropertyOp15
 70
     0
102
RTVSPropertyOp16
 70
     0
102
RTVSPropertyOp17
 70
     0
102
RTVSPropertyOp18
 70
     0
102
RTVSPropertyOp19
 70
     0
102
RTVSPropertyOp20
 70
     0
102
RTVSPropertyOp21
 70
     0
102
RTVSPropertyOp22
 70
     0
102
RTVSPropertyOp23
 70
     0
102
RTVSPropertyOp24
 70
     0
102
RTVSPropertyOp25
 70
     0
102
RTVSPropertyOp26
 70
     0
102
RTVSPropertyOp27
 70
     0
102
RTVSPropertyOp28
 70
     0
102
RTVSPropertyOp29
 70
     0
102
RTVSPropertyOp30
 70
     0
102
RTVSPropertyOp31
 70
     0
102
RTVSPropertyOp32
 70
     0
102
RTVSPropertyOp33
 70
     0
102
RTVSPropertyOp34
 70
     0
102
RTVSPropertyOp35
 70
     0
102
RTVSPropertyOp36
 70
     0
102
RTVSPropertyOp37
 70
     0
102
RTVSPropertyOp38
 70
     0
102
RTVSPropertyOp39
 70
     0
102
RTVSPropertyOp40
 70
     0
102
RTVSPropertyOp41
 70
     0
102
RTVSPropertyOp42
 70
     0
102
RTVSPropertyOp43
 70
     0
102
RTVSPropertyOp44
 70
     0
102
RTVSPropertyOp45
 70
     0
102
RTVSPropertyOp46
 70
     0
102
RTVSPropertyOp47
 70
     0
102
RTVSPropertyOp48
 70
     0
102
RTVSPropertyOp49
 70
     0
102
RTVSPropertyOp50
 70
     0
102
RTVSPropertyOp51
 70
     0
102
RTVSPropertyOp52
 70
     0
102
RTVSPropertyOp53
 70
     0
102
RTVSPropertyOp54
 70
     0
102
RTVSPropertyOp55
 70
     0
102
RTVSPropertyOp56
 70
     0
102
RTVSPropertyOp57
 70
     0
102
RTVSPost2010Prop28
280
     0
102
RTVSPost2010PropOp28
 70
     0
102
RTVSPost2010Prop29
280
     1
102
RTVSPost2010PropOp29
 70
     0
102
RTVSPost2010Prop30
280
     1
102
RTVSPost2010PropOp30
 70
     0
102
RTVSPost2010Prop31
280
     0
102
RTVSPost2010PropOp31
 70
     0
102
RTVSPost2010Prop32
280
     0
102
RTVSPost2010PropOp32
 70
     0
102
RTVSPost2010Prop33
280
     0
102
RTVSPost2010PropOp33
 70
     0
102
RTVSPost2010Prop34
280
     0
102
RTVSPost2010PropOp34
 70
     0
102
RTVSPost2010Prop35
280
     0
102
RTVSPost2010PropOp35
 70
     0
102
RTVSPost2010Prop36
280
     0
102
RTVSPost2010PropOp36
 70
     0
102
RTVSPost2010Prop37
 90
       50
102
RTVSPost2010PropOp37
 70
     0
102
RTVSPost2010Prop38
140
0.0
102
RTVSPost2010PropOp38
 70
     0
102
RTVSPost2010Prop39
140
1.0
102
RTVSPost2010PropOp39
 70
     0
102
RTVSPost2010Prop40
 90
        0
102
RTVSPost2010PropOp40
 70
     0
102
RTVSPost2010Prop41ColorIndex
 90
       18
102
RTVSPost2010Prop41ColorRGB
 90
        0
102
RTVSPost2010PropOp41
 70
     0
102
RTVSPost2010Prop42
 90
       50
102
RTVSPost2010PropOp42
 70
     0
102
RTVSPost2010Prop43
 90
        3
102
RTVSPost2010PropOp43
 70
     0
102
RTVSPost2010Prop44ColorIndex
 90
        5
102
RTVSPost2010Prop44ColorRGB
 90
      255
102
RTVSPost2010PropOp44
 70
     0
102
RTVSPost2010Prop45
280
     0
102
RTVSPost2010PropOp45
 70
     0
102
RTVSPost2010Prop46
 90
       50
102
RTVSPost2010PropOp46
 70
     0
102
RTVSPost2010Prop47
 90
       50
102
RTVSPost2010PropOp47
 70
     0
102
RTVSPost2010Prop48
 90
       50
102
RTVSPost2010PropOp48
 70
     0
102
RTVSPost2010Prop49
280
     0
102
RTVSPost2010PropOp49
 70
     0
102
RTVSPost2010Prop50
 90
       50
102
RTVSPost2010PropOp50
 70
     0
102
RTVSPost2010Prop51ColorIndex
 90
      256
102
RTVSPost2010Prop51ColorRGB
 90
-16777216
102
RTVSPost2010PropOp51
 70
     0
102
RTVSPost2010Prop52
140
1.0
102
RTVSPost2010PropOp52
 70
     0
102
RTVSPost2010Prop53
 90
        2
102
RTVSPost2010PropOp53
 70
     0
102
RTVSPost2010Prop54
  1
strokes_ogs.tif
102
RTVSPost2010PropOp54
 70
     0
102
RTVSPost2010Prop55
280
     0
102
RTVSPost2010PropOp55
 70
     0
102
RTVSPost2010Prop56
140
1.0
102
RTVSPost2010PropOp56
 70
     0
102
RTVSPost2010Prop57
140
1.0
102
RTVSPost2010PropOp57
 70
     0
  0
XRECORD
  5
311
102
{ACAD_REACTORS
330
310
102
}
330
310
100
AcDbXrecord
280
     1
102
RTVSPropertyOp0
 70
     1
102
RTVSPropertyOp1
 70
     1
102
RTVSPropertyOp2
 70
     1
102
RTVSPropertyOp3
 70
     1
102
RTVSPropertyOp4
 70
     1
102
RTVSPropertyOp5
 70
     1
102
RTVSPropertyOp6
 70
     1
102
RTVSPropertyOp7
 70
     1
102
RTVSPropertyOp8
 70
     1
102
RTVSPropertyOp9
 70
     1
102
RTVSPropertyOp10
 70
     1
102
RTVSPropertyOp11
 70
     1
102
RTVSPropertyOp12
 70
     1
102
RTVSPropertyOp13
 70
     1
102
RTVSPropertyOp14
 70
     1
102
RTVSPropertyOp15
 70
     1
102
RTVSPropertyOp16
 70
     1
102
RTVSPropertyOp17
 70
     1
102
RTVSPropertyOp18
 70
     1
102
RTVSPropertyOp19
 70
     1
102
RTVSPropertyOp20
 70
     1
102
RTVSPropertyOp21
 70
     1
102
RTVSPropertyOp22
 70
     1
102
RTVSPropertyOp23
 70
     1
102
RTVSPropertyOp24
 70
     1
102
RTVSPropertyOp25
 70
     1
102
RTVSPropertyOp26
 70
     1
102
RTVSPropertyOp27
 70
     1
102
RTVSPropertyOp28
 70
     1
102
RTVSPropertyOp29
 70
     1
102
RTVSPropertyOp30
 70
     1
102
RTVSPropertyOp31
 70
     1
102
RTVSPropertyOp32
 70
     1
102
RTVSPropertyOp33
 70
     1
102
RTVSPropertyOp34
 70
     1
102
RTVSPropertyOp35
 70
     1
102
RTVSPropertyOp36
 70
     1
102
RTVSPropertyOp37
 70
     1
102
RTVSPropertyOp38
 70
     1
102
RTVSPropertyOp39
 70
     1
102
RTVSPropertyOp40
 70
     1
102
RTVSPropertyOp41
 70
     1
102
RTVSPropertyOp42
 70
     1
102
RTVSPropertyOp43
 70
     1
102
RTVSPropertyOp44
 70
     1
102
RTVSPropertyOp45
 70
     1
102
RTVSPropertyOp46
 70
     1
102
RTVSPropertyOp47
 70
     1
102
RTVSPropertyOp48
 70
     1
102
RTVSPropertyOp49
 70
     1
102
RTVSPropertyOp50
 70
     1
102
RTVSPropertyOp51
 70
     0
102
RTVSPropertyOp52
 70
     0
102
RTVSPropertyOp53
 70
     1
102
RTVSPropertyOp54
 70
     1
102
RTVSPropertyOp55
 70
     1
102
RTVSPropertyOp56
 70
     1
102
RTVSPropertyOp57
 70
     1
102
RTVSPost2010Prop28
280
     0
102
RTVSPost2010PropOp28
 70
     1
102
RTVSPost2010Prop29
280
     1
102
RTVSPost2010PropOp29
 70
     1
102
RTVSPost2010Prop30
280
     1
102
RTVSPost2010PropOp30
 70
     1
102
RTVSPost2010Prop31
280
     0
102
RTVSPost2010PropOp31
 70
     1
102
RTVSPost2010Prop32
280
     0
102
RTVSPost2010PropOp32
 70
     1
102
RTVSPost2010Prop33
280
     0
102
RTVSPost2010PropOp33
 70
     1
102
RTVSPost2010Prop34
280
     0
102
RTVSPost2010PropOp34
 70
     1
102
RTVSPost2010Prop35
280
     0
102
RTVSPost2010PropOp35
 70
     1
102
RTVSPost2010Prop36
280
     0
102
RTVSPost2010PropOp36
 70
     1
102
RTVSPost2010Prop37
 90
       50
102
RTVSPost2010PropOp37
 70
     1
102
RTVSPost2010Prop38
140
0.0
102
RTVSPost2010PropOp38
 70
     1
102
RTVSPost2010Prop39
140
1.0
102
RTVSPost2010PropOp39
 70
     1
102
RTVSPost2010Prop40
 90
        0
102
RTVSPost2010PropOp40
 70
     1
102
RTVSPost2010Prop41ColorIndex
 90
       18
102
RTVSPost2010Prop41ColorRGB
 90
        0
102
RTVSPost2010PropOp41
 70
     1
102
RTVSPost2010Prop42
 90
       50
102
RTVSPost2010PropOp42
 70
     1
102
RTVSPost2010Prop43
 90
        3
102
RTVSPost2010PropOp43
 70
     1
102
RTVSPost2010Prop44ColorIndex
 90
        5
102
RTVSPost2010Prop44ColorRGB
 90
      255
102
RTVSPost2010PropOp44
 70
     1
102
RTVSPost2010Prop45
280
     0
102
RTVSPost2010PropOp45
 70
     1
102
RTVSPost2010Prop46
 90
       50
102
RTVSPost2010PropOp46
 70
     1
102
RTVSPost2010Prop47
 90
       50
102
RTVSPost2010PropOp47
 70
     1
102
RTVSPost2010Prop48
 90
       50
102
RTVSPost2010PropOp48
 70
     1
102
RTVSPost2010Prop49
280
     0
102
RTVSPost2010PropOp49
 70
     1
102
RTVSPost2010Prop50
 90
       50
102
RTVSPost2010PropOp50
 70
     1
102
RTVSPost2010Prop51ColorIndex
 90
      256
102
RTVSPost2010Prop51ColorRGB
 90
-16777216
102
RTVSPost2010PropOp51
 70
     0
102
RTVSPost2010Prop52
140
1.0
102
RTVSPost2010PropOp52
 70
     0
102
RTVSPost2010Prop53
 90
        2
102
RTVSPost2010PropOp53
 70
     1
102
RTVSPost2010Prop54
  1
strokes_ogs.tif
102
RTVSPost2010PropOp54
 70
     1
102
RTVSPost2010Prop55
280
     0
102
RTVSPost2010PropOp55
 70
     1
102
RTVSPost2010Prop56
140
1.0
102
RTVSPost2010PropOp56
 70
     1
102
RTVSPost2010Prop57
140
1.0
102
RTVSPost2010PropOp57
 70
     1
  0
XRECORD
  5
32F
102
{ACAD_REACTORS
330
32E
102
}
330
32E
100
AcDbXrecord
280
     1
102
RTVSPropertyOp0
 70
     1
102
RTVSPropertyOp1
 70
     1
102
RTVSPropertyOp2
 70
     1
102
RTVSPropertyOp3
 70
     1
102
RTVSPropertyOp4
 70
     1
102
RTVSPropertyOp5
 70
     1
102
RTVSPropertyOp6
 70
     1
102
RTVSPropertyOp7
 70
     1
102
RTVSPropertyOp8
 70
     1
102
RTVSPropertyOp9
 70
     1
102
RTVSPropertyOp10
 70
     1
102
RTVSPropertyOp11
 70
     1
102
RTVSPropertyOp12
 70
     1
102
RTVSPropertyOp13
 70
     1
102
RTVSPropertyOp14
 70
     1
102
RTVSPropertyOp15
 70
     1
102
RTVSPropertyOp16
 70
     1
102
RTVSPropertyOp17
 70
     1
102
RTVSPropertyOp18
 70
     1
102
RTVSPropertyOp19
 70
     1
102
RTVSPropertyOp20
 70
     1
102
RTVSPropertyOp21
 70
     1
102
RTVSPropertyOp22
 70
     1
102
RTVSPropertyOp23
 70
     1
102
RTVSPropertyOp24
 70
     1
102
RTVSPropertyOp25
 70
     1
102
RTVSPropertyOp26
 70
     1
102
RTVSPropertyOp27
 70
     1
102
RTVSPropertyOp28
 70
     1
102
RTVSPropertyOp29
 70
     1
102
RTVSPropertyOp30
 70
     1
102
RTVSPropertyOp31
 70
     1
102
RTVSPropertyOp32
 70
     1
102
RTVSPropertyOp33
 70
     1
102
RTVSPropertyOp34
 70
     1
102
RTVSPropertyOp35
 70
     1
102
RTVSPropertyOp36
 70
     1
102
RTVSPropertyOp37
 70
     1
102
RTVSPropertyOp38
 70
     1
102
RTVSPropertyOp39
 70
     1
102
RTVSPropertyOp40
 70
     1
102
RTVSPropertyOp41
 70
     1
102
RTVSPropertyOp42
 70
     1
102
RTVSPropertyOp43
 70
     1
102
RTVSPropertyOp44
 70
     1
102
RTVSPropertyOp45
 70
     1
102
RTVSPropertyOp46
 70
     1
102
RTVSPropertyOp47
 70
     1
102
RTVSPropertyOp48
 70
     1
102
RTVSPropertyOp49
 70
     1
102
RTVSPropertyOp50
 70
     1
102
RTVSPropertyOp51
 70
     0
102
RTVSPropertyOp52
 70
     0
102
RTVSPropertyOp53
 70
     1
102
RTVSPropertyOp54
 70
     1
102
RTVSPropertyOp55
 70
     1
102
RTVSPropertyOp56
 70
     1
102
RTVSPropertyOp57
 70
     1
102
RTVSPost2010Prop28
280
     0
102
RTVSPost2010PropOp28
 70
     1
102
RTVSPost2010Prop29
280
     1
102
RTVSPost2010PropOp29
 70
     1
102
RTVSPost2010Prop30
280
     1
102
RTVSPost2010PropOp30
 70
     1
102
RTVSPost2010Prop31
280
     0
102
RTVSPost2010PropOp31
 70
     1
102
RTVSPost2010Prop32
280
     0
102
RTVSPost2010PropOp32
 70
     1
102
RTVSPost2010Prop33
280
     0
102
RTVSPost2010PropOp33
 70
     1
102
RTVSPost2010Prop34
280
     0
102
RTVSPost2010PropOp34
 70
     1
102
RTVSPost2010Prop35
280
     0
102
RTVSPost2010PropOp35
 70
     1
102
RTVSPost2010Prop36
280
     0
102
RTVSPost2010PropOp36
 70
     1
102
RTVSPost2010Prop37
 90
       50
102
RTVSPost2010PropOp37
 70
     1
102
RTVSPost2010Prop38
140
0.0
102
RTVSPost2010PropOp38
 70
     1
102
RTVSPost2010Prop39
140
1.0
102
RTVSPost2010PropOp39
 70
     1
102
RTVSPost2010Prop40
 90
        0
102
RTVSPost2010PropOp40
 70
     1
102
RTVSPost2010Prop41ColorIndex
 90
       18
102
RTVSPost2010Prop41ColorRGB
 90
        0
102
RTVSPost2010PropOp41
 70
     1
102
RTVSPost2010Prop42
 90
       50
102
RTVSPost2010PropOp42
 70
     1
102
RTVSPost2010Prop43
 90
        3
102
RTVSPost2010PropOp43
 70
     1
102
RTVSPost2010Prop44ColorIndex
 90
        5
102
RTVSPost2010Prop44ColorRGB
 90
      255
102
RTVSPost2010PropOp44
 70
     1
102
RTVSPost2010Prop45
280
     0
102
RTVSPost2010PropOp45
 70
     1
102
RTVSPost2010Prop46
 90
       50
102
RTVSPost2010PropOp46
 70
     1
102
RTVSPost2010Prop47
 90
       50
102
RTVSPost2010PropOp47
 70
     1
102
RTVSPost2010Prop48
 90
       50
102
RTVSPost2010PropOp48
 70
     1
102
RTVSPost2010Prop49
280
     0
102
RTVSPost2010PropOp49
 70
     1
102
RTVSPost2010Prop50
 90
       50
102
RTVSPost2010PropOp50
 70
     1
102
RTVSPost2010Prop51ColorIndex
 90
      256
102
RTVSPost2010Prop51ColorRGB
 90
-16777216
102
RTVSPost2010PropOp51
 70
     0
102
RTVSPost2010Prop52
140
1.0
102
RTVSPost2010PropOp52
 70
     0
102
RTVSPost2010Prop53
 90
        2
102
RTVSPost2010PropOp53
 70
     1
102
RTVSPost2010Prop54
  1
strokes_ogs.tif
102
RTVSPost2010PropOp54
 70
     1
102
RTVSPost2010Prop55
280
     0
102
RTVSPost2010PropOp55
 70
     1
102
RTVSPost2010Prop56
140
1.0
102
RTVSPost2010PropOp56
 70
     1
102
RTVSPost2010Prop57
140
1.0
102
RTVSPost2010PropOp57
 70
     1
  0
XRECORD
  5
32D
102
{ACAD_REACTORS
330
32C
102
}
330
32C
100
AcDbXrecord
280
     1
102
RTVSPropertyOp0
 70
     1
102
RTVSPropertyOp1
 70
     1
102
RTVSPropertyOp2
 70
     1
102
RTVSPropertyOp3
 70
     1
102
RTVSPropertyOp4
 70
     1
102
RTVSPropertyOp5
 70
     1
102
RTVSPropertyOp6
 70
     1
102
RTVSPropertyOp7
 70
     1
102
RTVSPropertyOp8
 70
     1
102
RTVSPropertyOp9
 70
     1
102
RTVSPropertyOp10
 70
     1
102
RTVSPropertyOp11
 70
     1
102
RTVSPropertyOp12
 70
     1
102
RTVSPropertyOp13
 70
     1
102
RTVSPropertyOp14
 70
     1
102
RTVSPropertyOp15
 70
     1
102
RTVSPropertyOp16
 70
     1
102
RTVSPropertyOp17
 70
     1
102
RTVSPropertyOp18
 70
     1
102
RTVSPropertyOp19
 70
     1
102
RTVSPropertyOp20
 70
     1
102
RTVSPropertyOp21
 70
     1
102
RTVSPropertyOp22
 70
     1
102
RTVSPropertyOp23
 70
     1
102
RTVSPropertyOp24
 70
     1
102
RTVSPropertyOp25
 70
     1
102
RTVSPropertyOp26
 70
     1
102
RTVSPropertyOp27
 70
     1
102
RTVSPropertyOp28
 70
     1
102
RTVSPropertyOp29
 70
     1
102
RTVSPropertyOp30
 70
     1
102
RTVSPropertyOp31
 70
     1
102
RTVSPropertyOp32
 70
     1
102
RTVSPropertyOp33
 70
     1
102
RTVSPropertyOp34
 70
     1
102
RTVSPropertyOp35
 70
     1
102
RTVSPropertyOp36
 70
     1
102
RTVSPropertyOp37
 70
     1
102
RTVSPropertyOp38
 70
     1
102
RTVSPropertyOp39
 70
     1
102
RTVSPropertyOp40
 70
     1
102
RTVSPropertyOp41
 70
     1
102
RTVSPropertyOp42
 70
     1
102
RTVSPropertyOp43
 70
     1
102
RTVSPropertyOp44
 70
     1
102
RTVSPropertyOp45
 70
     1
102
RTVSPropertyOp46
 70
     1
102
RTVSPropertyOp47
 70
     1
102
RTVSPropertyOp48
 70
     1
102
RTVSPropertyOp49
 70
     1
102
RTVSPropertyOp50
 70
     1
102
RTVSPropertyOp51
 70
     0
102
RTVSPropertyOp52
 70
     0
102
RTVSPropertyOp53
 70
     1
102
RTVSPropertyOp54
 70
     1
102
RTVSPropertyOp55
 70
     1
102
RTVSPropertyOp56
 70
     1
102
RTVSPropertyOp57
 70
     1
102
RTVSPost2010Prop28
280
     0
102
RTVSPost2010PropOp28
 70
     1
102
RTVSPost2010Prop29
280
     1
102
RTVSPost2010PropOp29
 70
     1
102
RTVSPost2010Prop30
280
     1
102
RTVSPost2010PropOp30
 70
     1
102
RTVSPost2010Prop31
280
     0
102
RTVSPost2010PropOp31
 70
     1
102
RTVSPost2010Prop32
280
     0
102
RTVSPost2010PropOp32
 70
     1
102
RTVSPost2010Prop33
280
     0
102
RTVSPost2010PropOp33
 70
     1
102
RTVSPost2010Prop34
280
     0
102
RTVSPost2010PropOp34
 70
     1
102
RTVSPost2010Prop35
280
     0
102
RTVSPost2010PropOp35
 70
     1
102
RTVSPost2010Prop36
280
     0
102
RTVSPost2010PropOp36
 70
     1
102
RTVSPost2010Prop37
 90
       50
102
RTVSPost2010PropOp37
 70
     1
102
RTVSPost2010Prop38
140
0.0
102
RTVSPost2010PropOp38
 70
     1
102
RTVSPost2010Prop39
140
1.0
102
RTVSPost2010PropOp39
 70
     1
102
RTVSPost2010Prop40
 90
        0
102
RTVSPost2010PropOp40
 70
     1
102
RTVSPost2010Prop41ColorIndex
 90
       18
102
RTVSPost2010Prop41ColorRGB
 90
        0
102
RTVSPost2010PropOp41
 70
     1
102
RTVSPost2010Prop42
 90
       50
102
RTVSPost2010PropOp42
 70
     1
102
RTVSPost2010Prop43
 90
        3
102
RTVSPost2010PropOp43
 70
     1
102
RTVSPost2010Prop44ColorIndex
 90
        5
102
RTVSPost2010Prop44ColorRGB
 90
      255
102
RTVSPost2010PropOp44
 70
     1
102
RTVSPost2010Prop45
280
     0
102
RTVSPost2010PropOp45
 70
     1
102
RTVSPost2010Prop46
 90
       50
102
RTVSPost2010PropOp46
 70
     1
102
RTVSPost2010Prop47
 90
       50
102
RTVSPost2010PropOp47
 70
     1
102
RTVSPost2010Prop48
 90
       50
102
RTVSPost2010PropOp48
 70
     1
102
RTVSPost2010Prop49
280
     0
102
RTVSPost2010PropOp49
 70
     1
102
RTVSPost2010Prop50
 90
       50
102
RTVSPost2010PropOp50
 70
     1
102
RTVSPost2010Prop51ColorIndex
 90
      256
102
RTVSPost2010Prop51ColorRGB
 90
-16777216
102
RTVSPost2010PropOp51
 70
     0
102
RTVSPost2010Prop52
140
1.0
102
RTVSPost2010PropOp52
 70
     0
102
RTVSPost2010Prop53
 90
        2
102
RTVSPost2010PropOp53
 70
     1
102
RTVSPost2010Prop54
  1
strokes_ogs.tif
102
RTVSPost2010PropOp54
 70
     1
102
RTVSPost2010Prop55
280
     0
102
RTVSPost2010PropOp55
 70
     1
102
RTVSPost2010Prop56
140
1.0
102
RTVSPost2010PropOp56
 70
     1
102
RTVSPost2010Prop57
140
1.0
102
RTVSPost2010PropOp57
 70
     1
  0
XRECORD
  5
327
102
{ACAD_REACTORS
330
326
102
}
330
326
100
AcDbXrecord
280
     1
102
RTVSPropertyOp0
 70
     1
102
RTVSPropertyOp1
 70
     1
102
RTVSPropertyOp2
 70
     1
102
RTVSPropertyOp3
 70
     1
102
RTVSPropertyOp4
 70
     1
102
RTVSPropertyOp5
 70
     1
102
RTVSPropertyOp6
 70
     1
102
RTVSPropertyOp7
 70
     1
102
RTVSPropertyOp8
 70
     1
102
RTVSPropertyOp9
 70
     1
102
RTVSPropertyOp10
 70
     1
102
RTVSPropertyOp11
 70
     1
102
RTVSPropertyOp12
 70
     1
102
RTVSPropertyOp13
 70
     1
102
RTVSPropertyOp14
 70
     1
102
RTVSPropertyOp15
 70
     1
102
RTVSPropertyOp16
 70
     1
102
RTVSPropertyOp17
 70
     1
102
RTVSPropertyOp18
 70
     1
102
RTVSPropertyOp19
 70
     1
102
RTVSPropertyOp20
 70
     1
102
RTVSPropertyOp21
 70
     1
102
RTVSPropertyOp22
 70
     1
102
RTVSPropertyOp23
 70
     1
102
RTVSPropertyOp24
 70
     1
102
RTVSPropertyOp25
 70
     1
102
RTVSPropertyOp26
 70
     1
102
RTVSPropertyOp27
 70
     1
102
RTVSPropertyOp28
 70
     1
102
RTVSPropertyOp29
 70
     1
102
RTVSPropertyOp30
 70
     1
102
RTVSPropertyOp31
 70
     1
102
RTVSPropertyOp32
 70
     1
102
RTVSPropertyOp33
 70
     1
102
RTVSPropertyOp34
 70
     1
102
RTVSPropertyOp35
 70
     1
102
RTVSPropertyOp36
 70
     1
102
RTVSPropertyOp37
 70
     1
102
RTVSPropertyOp38
 70
     1
102
RTVSPropertyOp39
 70
     1
102
RTVSPropertyOp40
 70
     1
102
RTVSPropertyOp41
 70
     1
102
RTVSPropertyOp42
 70
     1
102
RTVSPropertyOp43
 70
     1
102
RTVSPropertyOp44
 70
     1
102
RTVSPropertyOp45
 70
     1
102
RTVSPropertyOp46
 70
     1
102
RTVSPropertyOp47
 70
     1
102
RTVSPropertyOp48
 70
     1
102
RTVSPropertyOp49
 70
     1
102
RTVSPropertyOp50
 70
     1
102
RTVSPropertyOp51
 70
     0
102
RTVSPropertyOp52
 70
     0
102
RTVSPropertyOp53
 70
     1
102
RTVSPropertyOp54
 70
     1
102
RTVSPropertyOp55
 70
     1
102
RTVSPropertyOp56
 70
     1
102
RTVSPropertyOp57
 70
     1
102
RTVSPost2010Prop28
280
     0
102
RTVSPost2010PropOp28
 70
     1
102
RTVSPost2010Prop29
280
     1
102
RTVSPost2010PropOp29
 70
     1
102
RTVSPost2010Prop30
280
     1
102
RTVSPost2010PropOp30
 70
     1
102
RTVSPost2010Prop31
280
     0
102
RTVSPost2010PropOp31
 70
     1
102
RTVSPost2010Prop32
280
     0
102
RTVSPost2010PropOp32
 70
     1
102
RTVSPost2010Prop33
280
     0
102
RTVSPost2010PropOp33
 70
     1
102
RTVSPost2010Prop34
280
     0
102
RTVSPost2010PropOp34
 70
     1
102
RTVSPost2010Prop35
280
     0
102
RTVSPost2010PropOp35
 70
     1
102
RTVSPost2010Prop36
280
     0
102
RTVSPost2010PropOp36
 70
     1
102
RTVSPost2010Prop37
 90
       50
102
RTVSPost2010PropOp37
 70
     1
102
RTVSPost2010Prop38
140
0.0
102
RTVSPost2010PropOp38
 70
     1
102
RTVSPost2010Prop39
140
1.0
102
RTVSPost2010PropOp39
 70
     1
102
RTVSPost2010Prop40
 90
        0
102
RTVSPost2010PropOp40
 70
     1
102
RTVSPost2010Prop41ColorIndex
 90
       18
102
RTVSPost2010Prop41ColorRGB
 90
        0
102
RTVSPost2010PropOp41
 70
     1
102
RTVSPost2010Prop42
 90
       50
102
RTVSPost2010PropOp42
 70
     1
102
RTVSPost2010Prop43
 90
        3
102
RTVSPost2010PropOp43
 70
     1
102
RTVSPost2010Prop44ColorIndex
 90
        5
102
RTVSPost2010Prop44ColorRGB
 90
      255
102
RTVSPost2010PropOp44
 70
     1
102
RTVSPost2010Prop45
280
     0
102
RTVSPost2010PropOp45
 70
     1
102
RTVSPost2010Prop46
 90
       50
102
RTVSPost2010PropOp46
 70
     1
102
RTVSPost2010Prop47
 90
       50
102
RTVSPost2010PropOp47
 70
     1
102
RTVSPost2010Prop48
 90
       50
102
RTVSPost2010PropOp48
 70
     1
102
RTVSPost2010Prop49
280
     0
102
RTVSPost2010PropOp49
 70
     1
102
RTVSPost2010Prop50
 90
       50
102
RTVSPost2010PropOp50
 70
     1
102
RTVSPost2010Prop51ColorIndex
 90
      256
102
RTVSPost2010Prop51ColorRGB
 90
-16777216
102
RTVSPost2010PropOp51
 70
     0
102
RTVSPost2010Prop52
140
1.0
102
RTVSPost2010PropOp52
 70
     0
102
RTVSPost2010Prop53
 90
        2
102
RTVSPost2010PropOp53
 70
     1
102
RTVSPost2010Prop54
  1
strokes_ogs.tif
102
RTVSPost2010PropOp54
 70
     1
102
RTVSPost2010Prop55
280
     0
102
RTVSPost2010PropOp55
 70
     1
102
RTVSPost2010Prop56
140
1.0
102
RTVSPost2010PropOp56
 70
     1
102
RTVSPost2010Prop57
140
1.0
102
RTVSPost2010PropOp57
 70
     1
  0
XRECORD
  5
329
102
{ACAD_REACTORS
330
328
102
}
330
328
100
AcDbXrecord
280
     1
102
RTVSPropertyOp0
 70
     1
102
RTVSPropertyOp1
 70
     1
102
RTVSPropertyOp2
 70
     1
102
RTVSPropertyOp3
 70
     1
102
RTVSPropertyOp4
 70
     1
102
RTVSPropertyOp5
 70
     1
102
RTVSPropertyOp6
 70
     1
102
RTVSPropertyOp7
 70
     1
102
RTVSPropertyOp8
 70
     1
102
RTVSPropertyOp9
 70
     1
102
RTVSPropertyOp10
 70
     1
102
RTVSPropertyOp11
 70
     1
102
RTVSPropertyOp12
 70
     1
102
RTVSPropertyOp13
 70
     1
102
RTVSPropertyOp14
 70
     1
102
RTVSPropertyOp15
 70
     1
102
RTVSPropertyOp16
 70
     1
102
RTVSPropertyOp17
 70
     1
102
RTVSPropertyOp18
 70
     1
102
RTVSPropertyOp19
 70
     1
102
RTVSPropertyOp20
 70
     1
102
RTVSPropertyOp21
 70
     1
102
RTVSPropertyOp22
 70
     1
102
RTVSPropertyOp23
 70
     1
102
RTVSPropertyOp24
 70
     1
102
RTVSPropertyOp25
 70
     1
102
RTVSPropertyOp26
 70
     1
102
RTVSPropertyOp27
 70
     1
102
RTVSPropertyOp28
 70
     1
102
RTVSPropertyOp29
 70
     1
102
RTVSPropertyOp30
 70
     1
102
RTVSPropertyOp31
 70
     1
102
RTVSPropertyOp32
 70
     1
102
RTVSPropertyOp33
 70
     1
102
RTVSPropertyOp34
 70
     1
102
RTVSPropertyOp35
 70
     1
102
RTVSPropertyOp36
 70
     1
102
RTVSPropertyOp37
 70
     1
102
RTVSPropertyOp38
 70
     1
102
RTVSPropertyOp39
 70
     1
102
RTVSPropertyOp40
 70
     1
102
RTVSPropertyOp41
 70
     1
102
RTVSPropertyOp42
 70
     1
102
RTVSPropertyOp43
 70
     1
102
RTVSPropertyOp44
 70
     1
102
RTVSPropertyOp45
 70
     1
102
RTVSPropertyOp46
 70
     1
102
RTVSPropertyOp47
 70
     1
102
RTVSPropertyOp48
 70
     1
102
RTVSPropertyOp49
 70
     1
102
RTVSPropertyOp50
 70
     1
102
RTVSPropertyOp51
 70
     0
102
RTVSPropertyOp52
 70
     0
102
RTVSPropertyOp53
 70
     1
102
RTVSPropertyOp54
 70
     1
102
RTVSPropertyOp55
 70
     1
102
RTVSPropertyOp56
 70
     1
102
RTVSPropertyOp57
 70
     1
102
RTVSPost2010Prop28
280
     0
102
RTVSPost2010PropOp28
 70
     1
102
RTVSPost2010Prop29
280
     1
102
RTVSPost2010PropOp29
 70
     1
102
RTVSPost2010Prop30
280
     1
102
RTVSPost2010PropOp30
 70
     1
102
RTVSPost2010Prop31
280
     0
102
RTVSPost2010PropOp31
 70
     1
102
RTVSPost2010Prop32
280
     0
102
RTVSPost2010PropOp32
 70
     1
102
RTVSPost2010Prop33
280
     0
102
RTVSPost2010PropOp33
 70
     1
102
RTVSPost2010Prop34
280
     0
102
RTVSPost2010PropOp34
 70
     1
102
RTVSPost2010Prop35
280
     0
102
RTVSPost2010PropOp35
 70
     1
102
RTVSPost2010Prop36
280
     0
102
RTVSPost2010PropOp36
 70
     1
102
RTVSPost2010Prop37
 90
       50
102
RTVSPost2010PropOp37
 70
     1
102
RTVSPost2010Prop38
140
0.0
102
RTVSPost2010PropOp38
 70
     1
102
RTVSPost2010Prop39
140
1.0
102
RTVSPost2010PropOp39
 70
     1
102
RTVSPost2010Prop40
 90
        0
102
RTVSPost2010PropOp40
 70
     1
102
RTVSPost2010Prop41ColorIndex
 90
       18
102
RTVSPost2010Prop41ColorRGB
 90
        0
102
RTVSPost2010PropOp41
 70
     1
102
RTVSPost2010Prop42
 90
       50
102
RTVSPost2010PropOp42
 70
     1
102
RTVSPost2010Prop43
 90
        3
102
RTVSPost2010PropOp43
 70
     1
102
RTVSPost2010Prop44ColorIndex
 90
        5
102
RTVSPost2010Prop44ColorRGB
 90
      255
102
RTVSPost2010PropOp44
 70
     1
102
RTVSPost2010Prop45
280
     0
102
RTVSPost2010PropOp45
 70
     1
102
RTVSPost2010Prop46
 90
       50
102
RTVSPost2010PropOp46
 70
     1
102
RTVSPost2010Prop47
 90
       50
102
RTVSPost2010PropOp47
 70
     1
102
RTVSPost2010Prop48
 90
       50
102
RTVSPost2010PropOp48
 70
     1
102
RTVSPost2010Prop49
280
     0
102
RTVSPost2010PropOp49
 70
     1
102
RTVSPost2010Prop50
 90
       50
102
RTVSPost2010PropOp50
 70
     1
102
RTVSPost2010Prop51ColorIndex
 90
      256
102
RTVSPost2010Prop51ColorRGB
 90
-16777216
102
RTVSPost2010PropOp51
 70
     0
102
RTVSPost2010Prop52
140
1.0
102
RTVSPost2010PropOp52
 70
     0
102
RTVSPost2010Prop53
 90
        2
102
RTVSPost2010PropOp53
 70
     1
102
RTVSPost2010Prop54
  1
strokes_ogs.tif
102
RTVSPost2010PropOp54
 70
     1
102
RTVSPost2010Prop55
280
     0
102
RTVSPost2010PropOp55
 70
     1
102
RTVSPost2010Prop56
140
1.0
102
RTVSPost2010PropOp56
 70
     1
102
RTVSPost2010Prop57
140
1.0
102
RTVSPost2010PropOp57
 70
     1
  0
XRECORD
  5
319
102
{ACAD_REACTORS
330
318
102
}
330
318
100
AcDbXrecord
280
     1
102
RTVSPropertyOp0
 70
     1
102
RTVSPropertyOp1
 70
     1
102
RTVSPropertyOp2
 70
     1
102
RTVSPropertyOp3
 70
     1
102
RTVSPropertyOp4
 70
     1
102
RTVSPropertyOp5
 70
     1
102
RTVSPropertyOp6
 70
     1
102
RTVSPropertyOp7
 70
     1
102
RTVSPropertyOp8
 70
     1
102
RTVSPropertyOp9
 70
     1
102
RTVSPropertyOp10
 70
     1
102
RTVSPropertyOp11
 70
     1
102
RTVSPropertyOp12
 70
     1
102
RTVSPropertyOp13
 70
     1
102
RTVSPropertyOp14
 70
     1
102
RTVSPropertyOp15
 70
     1
102
RTVSPropertyOp16
 70
     1
102
RTVSPropertyOp17
 70
     1
102
RTVSPropertyOp18
 70
     1
102
RTVSPropertyOp19
 70
     1
102
RTVSPropertyOp20
 70
     1
102
RTVSPropertyOp21
 70
     1
102
RTVSPropertyOp22
 70
     1
102
RTVSPropertyOp23
 70
     1
102
RTVSPropertyOp24
 70
     1
102
RTVSPropertyOp25
 70
     1
102
RTVSPropertyOp26
 70
     1
102
RTVSPropertyOp27
 70
     1
102
RTVSPropertyOp28
 70
     1
102
RTVSPropertyOp29
 70
     1
102
RTVSPropertyOp30
 70
     1
102
RTVSPropertyOp31
 70
     1
102
RTVSPropertyOp32
 70
     1
102
RTVSPropertyOp33
 70
     1
102
RTVSPropertyOp34
 70
     1
102
RTVSPropertyOp35
 70
     1
102
RTVSPropertyOp36
 70
     1
102
RTVSPropertyOp37
 70
     1
102
RTVSPropertyOp38
 70
     1
102
RTVSPropertyOp39
 70
     1
102
RTVSPropertyOp40
 70
     1
102
RTVSPropertyOp41
 70
     1
102
RTVSPropertyOp42
 70
     1
102
RTVSPropertyOp43
 70
     1
102
RTVSPropertyOp44
 70
     1
102
RTVSPropertyOp45
 70
     1
102
RTVSPropertyOp46
 70
     1
102
RTVSPropertyOp47
 70
     1
102
RTVSPropertyOp48
 70
     1
102
RTVSPropertyOp49
 70
     1
102
RTVSPropertyOp50
 70
     1
102
RTVSPropertyOp51
 70
     0
102
RTVSPropertyOp52
 70
     0
102
RTVSPropertyOp53
 70
     1
102
RTVSPropertyOp54
 70
     1
102
RTVSPropertyOp55
 70
     1
102
RTVSPropertyOp56
 70
     1
102
RTVSPropertyOp57
 70
     1
102
RTVSPost2010Prop28
280
     0
102
RTVSPost2010PropOp28
 70
     1
102
RTVSPost2010Prop29
280
     1
102
RTVSPost2010PropOp29
 70
     1
102
RTVSPost2010Prop30
280
     1
102
RTVSPost2010PropOp30
 70
     1
102
RTVSPost2010Prop31
280
     0
102
RTVSPost2010PropOp31
 70
     1
102
RTVSPost2010Prop32
280
     0
102
RTVSPost2010PropOp32
 70
     1
102
RTVSPost2010Prop33
280
     0
102
RTVSPost2010PropOp33
 70
     1
102
RTVSPost2010Prop34
280
     0
102
RTVSPost2010PropOp34
 70
     1
102
RTVSPost2010Prop35
280
     0
102
RTVSPost2010PropOp35
 70
     1
102
RTVSPost2010Prop36
280
     0
102
RTVSPost2010PropOp36
 70
     1
102
RTVSPost2010Prop37
 90
       50
102
RTVSPost2010PropOp37
 70
     1
102
RTVSPost2010Prop38
140
0.0
102
RTVSPost2010PropOp38
 70
     1
102
RTVSPost2010Prop39
140
1.0
102
RTVSPost2010PropOp39
 70
     1
102
RTVSPost2010Prop40
 90
        0
102
RTVSPost2010PropOp40
 70
     1
102
RTVSPost2010Prop41ColorIndex
 90
       18
102
RTVSPost2010Prop41ColorRGB
 90
        0
102
RTVSPost2010PropOp41
 70
     1
102
RTVSPost2010Prop42
 90
       50
102
RTVSPost2010PropOp42
 70
     1
102
RTVSPost2010Prop43
 90
        3
102
RTVSPost2010PropOp43
 70
     1
102
RTVSPost2010Prop44ColorIndex
 90
        5
102
RTVSPost2010Prop44ColorRGB
 90
      255
102
RTVSPost2010PropOp44
 70
     1
102
RTVSPost2010Prop45
280
     0
102
RTVSPost2010PropOp45
 70
     1
102
RTVSPost2010Prop46
 90
       50
102
RTVSPost2010PropOp46
 70
     1
102
RTVSPost2010Prop47
 90
       50
102
RTVSPost2010PropOp47
 70
     1
102
RTVSPost2010Prop48
 90
       50
102
RTVSPost2010PropOp48
 70
     1
102
RTVSPost2010Prop49
280
     0
102
RTVSPost2010PropOp49
 70
     1
102
RTVSPost2010Prop50
 90
       50
102
RTVSPost2010PropOp50
 70
     1
102
RTVSPost2010Prop51ColorIndex
 90
      256
102
RTVSPost2010Prop51ColorRGB
 90
-16777216
102
RTVSPost2010PropOp51
 70
     0
102
RTVSPost2010Prop52
140
1.0
102
RTVSPost2010PropOp52
 70
     0
102
RTVSPost2010Prop53
 90
        2
102
RTVSPost2010PropOp53
 70
     1
102
RTVSPost2010Prop54
  1
strokes_ogs.tif
102
RTVSPost2010PropOp54
 70
     1
102
RTVSPost2010Prop55
280
     0
102
RTVSPost2010PropOp55
 70
     1
102
RTVSPost2010Prop56
140
1.0
102
RTVSPost2010PropOp56
 70
     1
102
RTVSPost2010Prop57
140
1.0
102
RTVSPost2010PropOp57
 70
     1
  0
XRECORD
  5
30B
102
{ACAD_REACTORS
330
30A
102
}
330
30A
100
AcDbXrecord
280
     1
102
RTVSPropertyOp0
 70
     1
102
RTVSPropertyOp1
 70
     1
102
RTVSPropertyOp2
 70
     1
102
RTVSPropertyOp3
 70
     1
102
RTVSPropertyOp4
 70
     1
102
RTVSPropertyOp5
 70
     1
102
RTVSPropertyOp6
 70
     1
102
RTVSPropertyOp7
 70
     1
102
RTVSPropertyOp8
 70
     1
102
RTVSPropertyOp9
 70
     1
102
RTVSPropertyOp10
 70
     1
102
RTVSPropertyOp11
 70
     1
102
RTVSPropertyOp12
 70
     1
102
RTVSPropertyOp13
 70
     1
102
RTVSPropertyOp14
 70
     1
102
RTVSPropertyOp15
 70
     1
102
RTVSPropertyOp16
 70
     1
102
RTVSPropertyOp17
 70
     1
102
RTVSPropertyOp18
 70
     1
102
RTVSPropertyOp19
 70
     1
102
RTVSPropertyOp20
 70
     1
102
RTVSPropertyOp21
 70
     1
102
RTVSPropertyOp22
 70
     1
102
RTVSPropertyOp23
 70
     1
102
RTVSPropertyOp24
 70
     1
102
RTVSPropertyOp25
 70
     1
102
RTVSPropertyOp26
 70
     1
102
RTVSPropertyOp27
 70
     1
102
RTVSPropertyOp28
 70
     1
102
RTVSPropertyOp29
 70
     1
102
RTVSPropertyOp30
 70
     1
102
RTVSPropertyOp31
 70
     1
102
RTVSPropertyOp32
 70
     1
102
RTVSPropertyOp33
 70
     1
102
RTVSPropertyOp34
 70
     1
102
RTVSPropertyOp35
 70
     1
102
RTVSPropertyOp36
 70
     1
102
RTVSPropertyOp37
 70
     1
102
RTVSPropertyOp38
 70
     1
102
RTVSPropertyOp39
 70
     1
102
RTVSPropertyOp40
 70
     1
102
RTVSPropertyOp41
 70
     1
102
RTVSPropertyOp42
 70
     1
102
RTVSPropertyOp43
 70
     1
102
RTVSPropertyOp44
 70
     1
102
RTVSPropertyOp45
 70
     1
102
RTVSPropertyOp46
 70
     1
102
RTVSPropertyOp47
 70
     1
102
RTVSPropertyOp48
 70
     1
102
RTVSPropertyOp49
 70
     1
102
RTVSPropertyOp50
 70
     1
102
RTVSPropertyOp51
 70
     0
102
RTVSPropertyOp52
 70
     0
102
RTVSPropertyOp53
 70
     1
102
RTVSPropertyOp54
 70
     1
102
RTVSPropertyOp55
 70
     1
102
RTVSPropertyOp56
 70
     1
102
RTVSPropertyOp57
 70
     1
102
RTVSPost2010Prop28
280
     0
102
RTVSPost2010PropOp28
 70
     1
102
RTVSPost2010Prop29
280
     1
102
RTVSPost2010PropOp29
 70
     1
102
RTVSPost2010Prop30
280
     1
102
RTVSPost2010PropOp30
 70
     1
102
RTVSPost2010Prop31
280
     0
102
RTVSPost2010PropOp31
 70
     1
102
RTVSPost2010Prop32
280
     0
102
RTVSPost2010PropOp32
 70
     1
102
RTVSPost2010Prop33
280
     0
102
RTVSPost2010PropOp33
 70
     1
102
RTVSPost2010Prop34
280
     0
102
RTVSPost2010PropOp34
 70
     1
102
RTVSPost2010Prop35
280
     0
102
RTVSPost2010PropOp35
 70
     1
102
RTVSPost2010Prop36
280
     0
102
RTVSPost2010PropOp36
 70
     1
102
RTVSPost2010Prop37
 90
       50
102
RTVSPost2010PropOp37
 70
     1
102
RTVSPost2010Prop38
140
0.0
102
RTVSPost2010PropOp38
 70
     1
102
RTVSPost2010Prop39
140
1.0
102
RTVSPost2010PropOp39
 70
     1
102
RTVSPost2010Prop40
 90
        0
102
RTVSPost2010PropOp40
 70
     1
102
RTVSPost2010Prop41ColorIndex
 90
       18
102
RTVSPost2010Prop41ColorRGB
 90
        0
102
RTVSPost2010PropOp41
 70
     1
102
RTVSPost2010Prop42
 90
       50
102
RTVSPost2010PropOp42
 70
     1
102
RTVSPost2010Prop43
 90
        3
102
RTVSPost2010PropOp43
 70
     1
102
RTVSPost2010Prop44ColorIndex
 90
        5
102
RTVSPost2010Prop44ColorRGB
 90
      255
102
RTVSPost2010PropOp44
 70
     1
102
RTVSPost2010Prop45
280
     0
102
RTVSPost2010PropOp45
 70
     1
102
RTVSPost2010Prop46
 90
       50
102
RTVSPost2010PropOp46
 70
     1
102
RTVSPost2010Prop47
 90
       50
102
RTVSPost2010PropOp47
 70
     1
102
RTVSPost2010Prop48
 90
       50
102
RTVSPost2010PropOp48
 70
     1
102
RTVSPost2010Prop49
280
     0
102
RTVSPost2010PropOp49
 70
     1
102
RTVSPost2010Prop50
 90
       50
102
RTVSPost2010PropOp50
 70
     1
102
RTVSPost2010Prop51ColorIndex
 90
      256
102
RTVSPost2010Prop51ColorRGB
 90
-16777216
102
RTVSPost2010PropOp51
 70
     0
102
RTVSPost2010Prop52
140
1.0
102
RTVSPost2010PropOp52
 70
     0
102
RTVSPost2010Prop53
 90
        2
102
RTVSPost2010PropOp53
 70
     1
102
RTVSPost2010Prop54
  1
strokes_ogs.tif
102
RTVSPost2010PropOp54
 70
     1
102
RTVSPost2010Prop55
280
     0
102
RTVSPost2010PropOp55
 70
     1
102
RTVSPost2010Prop56
140
1.0
102
RTVSPost2010PropOp56
 70
     1
102
RTVSPost2010Prop57
140
1.0
102
RTVSPost2010PropOp57
 70
     1
  0
XRECORD
  5
32B
102
{ACAD_REACTORS
330
32A
102
}
330
32A
100
AcDbXrecord
280
     1
102
RTVSPropertyOp0
 70
     1
102
RTVSPropertyOp1
 70
     1
102
RTVSPropertyOp2
 70
     1
102
RTVSPropertyOp3
 70
     1
102
RTVSPropertyOp4
 70
     1
102
RTVSPropertyOp5
 70
     1
102
RTVSPropertyOp6
 70
     1
102
RTVSPropertyOp7
 70
     1
102
RTVSPropertyOp8
 70
     1
102
RTVSPropertyOp9
 70
     1
102
RTVSPropertyOp10
 70
     1
102
RTVSPropertyOp11
 70
     1
102
RTVSPropertyOp12
 70
     1
102
RTVSPropertyOp13
 70
     1
102
RTVSPropertyOp14
 70
     1
102
RTVSPropertyOp15
 70
     1
102
RTVSPropertyOp16
 70
     1
102
RTVSPropertyOp17
 70
     1
102
RTVSPropertyOp18
 70
     1
102
RTVSPropertyOp19
 70
     1
102
RTVSPropertyOp20
 70
     1
102
RTVSPropertyOp21
 70
     1
102
RTVSPropertyOp22
 70
     1
102
RTVSPropertyOp23
 70
     1
102
RTVSPropertyOp24
 70
     1
102
RTVSPropertyOp25
 70
     1
102
RTVSPropertyOp26
 70
     1
102
RTVSPropertyOp27
 70
     1
102
RTVSPropertyOp28
 70
     1
102
RTVSPropertyOp29
 70
     1
102
RTVSPropertyOp30
 70
     1
102
RTVSPropertyOp31
 70
     1
102
RTVSPropertyOp32
 70
     1
102
RTVSPropertyOp33
 70
     1
102
RTVSPropertyOp34
 70
     1
102
RTVSPropertyOp35
 70
     1
102
RTVSPropertyOp36
 70
     1
102
RTVSPropertyOp37
 70
     1
102
RTVSPropertyOp38
 70
     1
102
RTVSPropertyOp39
 70
     1
102
RTVSPropertyOp40
 70
     1
102
RTVSPropertyOp41
 70
     1
102
RTVSPropertyOp42
 70
     1
102
RTVSPropertyOp43
 70
     1
102
RTVSPropertyOp44
 70
     1
102
RTVSPropertyOp45
 70
     1
102
RTVSPropertyOp46
 70
     1
102
RTVSPropertyOp47
 70
     1
102
RTVSPropertyOp48
 70
     1
102
RTVSPropertyOp49
 70
     1
102
RTVSPropertyOp50
 70
     1
102
RTVSPropertyOp51
 70
     0
102
RTVSPropertyOp52
 70
     0
102
RTVSPropertyOp53
 70
     1
102
RTVSPropertyOp54
 70
     1
102
RTVSPropertyOp55
 70
     1
102
RTVSPropertyOp56
 70
     1
102
RTVSPropertyOp57
 70
     1
102
RTVSPost2010Prop28
280
     0
102
RTVSPost2010PropOp28
 70
     1
102
RTVSPost2010Prop29
280
     1
102
RTVSPost2010PropOp29
 70
     1
102
RTVSPost2010Prop30
280
     1
102
RTVSPost2010PropOp30
 70
     1
102
RTVSPost2010Prop31
280
     0
102
RTVSPost2010PropOp31
 70
     1
102
RTVSPost2010Prop32
280
     0
102
RTVSPost2010PropOp32
 70
     1
102
RTVSPost2010Prop33
280
     0
102
RTVSPost2010PropOp33
 70
     1
102
RTVSPost2010Prop34
280
     0
102
RTVSPost2010PropOp34
 70
     1
102
RTVSPost2010Prop35
280
     0
102
RTVSPost2010PropOp35
 70
     1
102
RTVSPost2010Prop36
280
     0
102
RTVSPost2010PropOp36
 70
     1
102
RTVSPost2010Prop37
 90
       50
102
RTVSPost2010PropOp37
 70
     1
102
RTVSPost2010Prop38
140
0.0
102
RTVSPost2010PropOp38
 70
     1
102
RTVSPost2010Prop39
140
1.0
102
RTVSPost2010PropOp39
 70
     1
102
RTVSPost2010Prop40
 90
        0
102
RTVSPost2010PropOp40
 70
     1
102
RTVSPost2010Prop41ColorIndex
 90
       18
102
RTVSPost2010Prop41ColorRGB
 90
        0
102
RTVSPost2010PropOp41
 70
     1
102
RTVSPost2010Prop42
 90
       50
102
RTVSPost2010PropOp42
 70
     1
102
RTVSPost2010Prop43
 90
        3
102
RTVSPost2010PropOp43
 70
     1
102
RTVSPost2010Prop44ColorIndex
 90
        5
102
RTVSPost2010Prop44ColorRGB
 90
      255
102
RTVSPost2010PropOp44
 70
     1
102
RTVSPost2010Prop45
280
     0
102
RTVSPost2010PropOp45
 70
     1
102
RTVSPost2010Prop46
 90
       50
102
RTVSPost2010PropOp46
 70
     1
102
RTVSPost2010Prop47
 90
       50
102
RTVSPost2010PropOp47
 70
     1
102
RTVSPost2010Prop48
 90
       50
102
RTVSPost2010PropOp48
 70
     1
102
RTVSPost2010Prop49
280
     0
102
RTVSPost2010PropOp49
 70
     1
102
RTVSPost2010Prop50
 90
       50
102
RTVSPost2010PropOp50
 70
     1
102
RTVSPost2010Prop51ColorIndex
 90
      256
102
RTVSPost2010Prop51ColorRGB
 90
-16777216
102
RTVSPost2010PropOp51
 70
     0
102
RTVSPost2010Prop52
140
1.0
102
RTVSPost2010PropOp52
 70
     0
102
RTVSPost2010Prop53
 90
        2
102
RTVSPost2010PropOp53
 70
     1
102
RTVSPost2010Prop54
  1
strokes_ogs.tif
102
RTVSPost2010PropOp54
 70
     1
102
RTVSPost2010Prop55
280
     0
102
RTVSPost2010PropOp55
 70
     1
102
RTVSPost2010Prop56
140
1.0
102
RTVSPost2010PropOp56
 70
     1
102
RTVSPost2010Prop57
140
1.0
102
RTVSPost2010PropOp57
 70
     1
  0
ENDSEC
  0
EOF
